rock
 
|tablatures   |lyrics   |discussion forums   |more tabs @ XGuitar.com

Manic Street Preachers tabs

Intravenous Agnostic bass tab

Manic Street Preachers: Intravenous Agnostic
Standard Tuning: E, A, D, G
Tabbed by: mmfan486

G:----------------|----------------|----------------|----------------:|\\
D:----------------|----------------|----------------|----------------:| repeat
A:----------------|------------1-/-|6---------------|----------------:|   *2
E:----------------|----------------|----------------|----------------:|/

G:----------------|----------------|----------------|----------------|
D:----------------|----------------|----------------|----------------|
A:----------------|---------------/|6------/6------/|6---------------|
E:3---3---3-----1-|--1-1---1---1---|----------------|----------------|

G:----------------|----------------|----------------|----------------|
D:----------------|----------------|----------------|----------------|
A:----------------|---------------/|6--------------/|6---------------|
E:3---3---3-----1-|--1-1---1---1---|----------------|----------------|


Verse 1

G:----------------|----------------|----------------|----------------:|\\
D:----------------|----------------|----------------|----------------:| repeat
A:----------------|---------------/|6---6---6-------|----------------:|  *4
E:3---3---3-----1-|--1-1---1---1---|---------------/|6---6---6-------:|/


Pre Chorus

G:----------------|----------------|----------------|----------------|
D:----------------|----------------|----------------|----------------|
A:----------------|----------------|----------------|----------------|
E:11-----\\4------/|11-----\\4------/|16-----\\4------/|11-\\4---4-------|


Chorus

G:----------------|----------------|----------------|----------------|
D:----------------|----------------|----------------|----------------|
A:2---2---2----/5-|----5---5----/10|----10--10---\\5-|----5---5-------|
E:----------------|----------------|----------------|----------------|

G:----------------|----------------|----------------|----------------|
D:----------------|----------------|----------------|----------------|
A:2---2---2----/5-|----5---5----/10|----10--10---\\5-|----5--/9---5---|
E:----------------|----------------|----------------|----------------|

G:----------------|----------------|----------------|----------------|
D:----------------|----------------|----------------|----------------|
A:2---2---2----/5-|----5---5----/10|----10--10---\\5-|----5---5-------|
E:----------------|----------------|----------------|----------------|

G:----------------|----------------|\\       |----------------|
D:----------------|----------------| repeat |----------------| 2 bars
A:1010---------\\5-|----------------|  *3    |1010------------|  tacet
E:----------------|----------------|/       |----------------|


Into Verse 2


G:----------------|----------------|----------------|----------------|
D:----------------|----------------|----------------|----------------|
A:----------------|---------------/|6------/6------/|6------/6-------|
E:3---3---3-----1-|--1-1---1---1---|----------------|----------------|


G:----------------|----------------|----------------|----------------|
D:----------------|----------------|----------------|----------------|
A:----------------|---------------/|6--------------/|6---------------|
E:3---3---3-----1-|--1-1---1---1---|----------------|----------------|


Verse 2

G:----------------|----------------|----------------|----------------|
D:----------------|----------------|----------------|----------------|
A:----------------|---------------/|6---6---6-------|----------------|
E:3---3---3-----1-|--1-1---1---1---|---------------/|6---6---6-------|

G:----------------|----------------|----------------|----------------|
D:----------------|----------------|--------------8-|----8---8-------|
A:----------------|---------------/|6---6---6-------|----------------|
E:3---3---3-----1-|--1-1---1---1---|----------------|----------------|

G:----------------|----------------|----------------|----------------:|\\
D:----------------|----------------|----------------|----------------:| repeat
A:----------------|---------------/|6---6---6-------|----------------:|  *2
E:3---3---3-----1-|--1-1---1---1---|---------------/|6---6---6-------:|/


Middle

G:----------------|----------------|----------------|----------------|
D:----------------|----------------|----------------|----------------|
A:----------------|----------------|----------------|------------1-/-|
E:10\\-------------|----------------|----------------|----------------|

G:----------------|----------------|----------------|----------------|
D:----------------|----------------|----------------|----------------|
A:10----1010101010|1010101010101010|1010101010101010|--------10-/15-\\|
E:----------------|----------------|----------------|----------------|

G:----------------|----------------|----------------|----------------|
D:----------------|----------------|----------------|----------------|
A:1010101010101010|1010101010101010|1010101010101010|1011111111111111|
E:----------------|----------------|----------------|----------------|

G:----------------|----------------|----------------|----------------|
D:----------------|----------------|----------------|----------------|
A:1010101010101010|1010101010101010|1010101010101010|10111111111111/-|
E:----------------|----------------|----------------|----------------|

G:----------------|----------------|----------------|----------------|
D:----------------|----------------|----------------|----------------|
A:101010101010\\/10|--1010101010\\-/-|101010101010\\/10|--1010101010\\-/-|
E:----------------|----------------|----------------|----------------|

G:----------------|----------------|----------------|
D:----------------|----------------|----------------|
A:101010101010\\/10|--1010101010\\-/-|101010101010\\/10|
E:----------------|----------------|----------------|

G:----------------:|\\
D:----------------:| repeat
A:1010101010101010:|   *5
E:----------------:|/


End on a D.


Song Order:
Intro
Verse 1
Pre-chorus
Chorus
Into verse 2
Verse 2
Pre-chorus
Chorus
Middle
Chorus
End
  development and support by
dmitry ivanov