rock
 
|tablatures   |lyrics   |discussion forums   |more tabs @ XGuitar.com

Manic Street Preachers tabs

If White America Told The Truth For One Day It's World... guitar tab

IFWHITEAMERICATOLDTHETRUTHFORONEDAYIT'SWORLDWOULDFALLAPART

Intro/outro 

e ---------------------------------------
b ---------------------------------------
g ---------------------------------------
d --------------------------------2---4--
a --------------2---2---4----------------
e --4------------------------------------

Verse
e --------------------15---16---15---12--
b ---------------------------------------
g ---------------------------------------
d ---------------------------------------
a ---------------------------------------
e --------0------0-----------------------

Bridge

Emaj-779997

Chorus Dbmaj Bmaj Dbmaj Bmaj

Refrain G#maj Amaj Bmaj Cmaj Gmaj Amaj F#maj Abmaj Emaj

Images of perfection, suntan and napalm 
Grenada - Haiti - Poland - Nicaragua 
who shall we choose for our morality 
I'm thinking right now of Hollywood tragedy 
big mac smack: phoenix r: please smile y'all 
Cuba, Mexico can't cauterize our discipline 
your idols speak so much of the abyss 
yet your morals only run as deep as the surface 
cool - groovey - morning - fine 
Tipper Gore was a friend of mine 
I love a free country 
the stars and stripes and an apple for mommy 
conservatives say there ain't no black in the union jack 
democrat say there ain't enough white in the stars and stripes 
Compton - Harlem - a pimp fucked a priest 
the white man has just found a new moral saviour 
vital stats - how white was there skin 
unimportant - just another inner-city drive-by thing 
morning - fine - serve your first coffee of the day 
real privilege, it will take your problems all away 
number one - the best - no excuse from me 
I am here to serve the moral majority 
cool - groovey - morning - fine 
Tipper Gore was a friend of mine 
I love a free country 
the stars and stripes and an apple for mommy 
Zapruder the first to masturbate 
the world's first taste of crucified grace 
and we say there's not enough black in the union jack 
and we say there's too much white in the stars and stripes 
fuck the Brady Bill 
fuck the Brady Bill 
if God made man they say 
Sam Colt made him equal.
  development and support by
dmitry ivanov