rock
 
|tablatures   |lyrics   |discussion forums   |more tabs @ XGuitar.com

Manic Street Preachers tabs

Found That Soul bass tab

standard tuning (e,a,d,g)
manic street preachers- found that soul (know your enemy)
tabber- rob sherrington

verse (bit 1)
g-----------------------------
d-2-2-2-----------------------
a-------4-4-4-4-4-4-4-4-4-4-4-
e-----------------------------

verse (bit 2)

g-----------------------------------------
d-2-2-2-----------------4-4-4--------------
a-------2-2-2-2-2-2-2-2-------2-2-2-2-2-2-2
e------------------------------------------

chorus

g------------------------------------------
d------------------------------------------
a---------------------4-4-4-4-4-4-4--------
e-5-5-5-5-5-4-4-4-4-4----------------------

thats it, its easy to figure out the order if u listn to the cd n e way enjoy
  development and support by
dmitry ivanov