rock
 
|tablatures   |lyrics   |discussion forums   |more tabs @ XGuitar.com

Manic Street Preachers tabs

Die In The Summertime guitar tab

DIE IN THE SUMMERTIME

Intro

E ----------------------------------------BU----------
B -9----9--9----9----9-9-----9----9-9----7--9~~~~~~~~~
G ----------------------------------------------------
D ----------------------------------------------------
A ----------------------------------------------------
E ----------------------------------------------------

(This is played later on in the song after the first chorus.)

E ----------------------------------------------------*Or finish with
B -----------------------------------------------------C#5
G -------------------------------------------------*------6
D ---0---0--0-0------3---3--3-3------0---0--0-0----3------6
A -4---4---4-4-----4---4---4-4-----4---4---4-4-----4------4
E -------------------------------------------------*-------

Verse Pattern (Play this twice, ommitting the second PO the second time)

E ---------------------------------------------------------------------
B ---------------------------------------------------------------------
G ---------------------------------------------------------------------
D -----------------------3---3--3-3-4p3-------------------3--3--3--------
A -4-5--4-5--4-5-4-5---4---4---4-4-----4-4-5-4-5-4-5-4-5-4--4--4--4----2-
E ------------------------------------------------------------------2h4--
  Scratch my leg with a rusty nail,  Sadly    it     heels

Pre Chorus

  C#5 D5        B5  C#5 F5         C#5   C#5 D5        B5  C#5
E --------------------------------------------------------------
B --------------------------------------------------------------
G --6/7-7-7-7-7---4---6/10-10-10-10--6-6---6/7-7-7-7-7---4---6--
D --6/7-7-7-7-7---4---6/10-10-10-10--6-6---6/7-7-7-7-7---4---6--
A --4/5-5-5-5-5---2---4/8--8--8--8---4-4---4/5-5-5-5-5---2---4--
E --------------------------------------------------------------

Chorus

A5     C#5
I have crawled so far sideways,

A5               C#5       B5
I recognise just traces of creation,

A5      C#5
I wanna die, Die in the summertime

A5         C#5
I wanna die

Solo

E ----------------------------------7--10--
B ---------------------------7--10---------
G ---------------------7--9----------------
D ---------------7--9----------------------
A ---------7--9----------------------------
E --7--10----------------------------------
  development and support by
dmitry ivanov