rock
 
|tablatures   |lyrics   |discussion forums   |more tabs @ XGuitar.com

Manic Street Preachers tabs

Born To End guitar tab

BORN TO END

Intro

Riff A

    N.C.            A5            F#m    G
e-|---------------|-------------|-2----|-3----|
B-|---------------|-------------|-2----|-3----|
G-|---------------|-------------|-2----|-4----| Repeat
D-|-7-/9-/12----4-|-/7----4-/7--|-4----|-5----|   x2
A-|-7-/9-/12----4-|-/7----4-/7--|-4----|-5----|
E-|-5-/7-/10--0-2-|-/5--0-2-/5--|-2----|-3----|

Fill 1
  Played by a second guitar over the first F#m chord.

e-|----------------
B-|-15-bu-(17)-rb--

Fill 2
  Again played by a second guitar this is played over D and A chords after
the intro riff.
    D                     A                    F#m     G
e-|---------------------|---------------------|-------|-------|
B-|-7-bu-(8)-rb---------|---------------------|-------|-------|
G-|-------------9-7-----|-6-bu-(7)-rb---------|-{---}-|-{---}-|
D-|-----------------9-7-|-------------9-7-----|-------|-------|
A-|---------------------|-----------------9-7-|-------|-------|

 
Verse

  D               A               F#m    G
  Get some pain I feel alive        Born to end

  D               A               F#m    G
  Get run over by no direction      Born to end



Pre-Chorus

  E5                              A5
  Fall to the floor my baby       I no longer believe

  E5                              A5
  Fall to the floor my baby       I've lost the love to sleep


Chorus

  E          D                    E                    D
  H-bomb the only thing that will bring are freedom to life

  E              D                    E             
  Underneath the blue skies beautiful empty dying     

  D        D
  Nagasaki dolls are burning


Repeat Riff A x2 (w/fills 1+2)

Verse 2: Repeat Verse 1

Pre-Chorus: Repeat Pre-Chorus

Chorus: Repeat Chorus


Mid-Section
   This is part of the first guitar solo
    G
e-|-------------------|-------------------------|-
B-|-7-bu-(8)-rb-5---5-|-7-bu-(8)-7-bu-(8)-5---5-|-
G-|---------------7---|---------------------7---|-
D-|-------------------|-------------------------|-

e-|-------------------10----10-|
B-|-7-bu-(8)-rb-5-/10----10----| Repeat
G-|----------------------------|   x2
D-|----------------------------|

Riff B
    E           D
e-|-----------|--------|
B-|---9-------|-7------|
G-|-----9-----|---7----| Repeat 
D-|-------9---|-----7--|   x4
A-|-7-------7-|--------|
E-|-----------|--------|

Repeat Chorus w/Riff B x4 


Solo
                        
 |E     |D     | x4   

 |D     |      |


Outro
    D          E                D
e-|----------|-------|--------|------|
B-|-7-7-7--7-|-/9----|--------|-7----|
D-|-7-7-7--7-|-/9----|-Repeat-|-7----|
G-|-7-7-7--7-|-/9----|---x2---|-7----|
A-|-5-5-5--5-|-------|--------|-5----|
E-|----------|-------|--------|------|
  development and support by
dmitry ivanov