rock
 
|tablatures   |lyrics   |discussion forums   |more tabs @ XGuitar.com

Manic Street Preachers tabs

Born A Girl guitar tab

BORN A GIRL

[Verse]

  F#m
e|-------2-----------2-----|
B|-----2---2-------2---2---|
G|---2-------2---2-------2-|
D|-4-----------4-----------|
A|-------------------------|
E|-------------------------|

Do I look good for you tonight

  B
e|-------2-----------4-----|
B|-----4---4-------4---4---|
G|---4-------4---4-------4-|
D|-4-----------4-----------|
A|-------------------------|
E|-------------------------|

Will you accuse me as I hide

A                  A/G#
Behind these layers of disguise
A/G            A/F#     F   
In the mirrors of my own happiness

    Dm
e --------0-----1-----3-----1-----0----------
B ------3---3-----2-----2-----3-----3--------
G ----2-------2-----3-----2-----2-----2-2/3--
D --0----------------------------------------
A -------------------------------------------
E -------------------------------------------

[Chorus]

     Cmaj7   Em    Am   Am/G   F
And I wish   I had been born a girl
Dm*        F
Instead of what I am
      Cmaj7  Em    Am   Am/G   F 
And I wish   I had been born a girl
Dm*          F
And not this mess of a man
             Am            F
And not this mess of a maaaaaaaan
             Am            F
And not this mess of a maaaaaaaan
  development and support by
dmitry ivanov