rock
 
|tablatures   |lyrics   |discussion forums   |more tabs @ XGuitar.com

Manic Street Preachers tabs

Australia guitar tab

AUSTRALIA

Normal Tuning

Intro:

Part one

e  -0--0--0--0--0--0--0--0--0--x--x--x
B -0--0--0--0--0--0--0--0--0--x--x--x
G -1--1--1--2--2--2--3--3--3--5--4--2            (*4)       
D -2--2--2--2--2--2--2--2--2--x--x--x
A -2--2--2--2--2--2--2--2--2--x--x--x
E -0--0--0--0--0--0--0--0--0--x--x--x

Part two

e ----------------------------------------------
B -13-13-13-13-13-13-14-16-14-13-11-9--(6)
G -x---x---x---x---x---x--x---x---x--x---x--x--(x)      (*2)  notes  
D -13-13-13-13-13-13-14-16-14-13-11-9--(6)     in brackets
A -------------------------------------------------         2nd time 
E -------------------------------------------------         only.

e ------------------------------------------------------
B -13-13-14-16-14-13-14-16------13-13-14-16
G -x---x---x---x---x---x--x---x-------x--x--x--x--x     
D -13-13-14-16-14-13-14-16------13-13-14-16    
A -----------------------------------------------------       
E ------------------------------------------------------     

Now play A5 (x0220x)

I.......... don't know if I'm tired

e ---4----4----4----4----3---3---3---3---5---5
B --5----5----5----5----4---4---4---4---6---6
G --6----6----6----6----5---5---5---5---7---7
D --6----6----6----6----5---5---5---5---7---7
A --4----4----4----4----3---3---3---3---5---5
E --x-----x----x----x----x----x---x---x----x---x

And I.....don't know if I'm ?????           My cheeks are etc.

e ---4----4----4----4----3---3---3---3---2---2---2---2---2---2
B --5----5----5----5----4---4---4---4---3---3---3---3---3---3.
G --6----6----6----6----5---5---5---5---4---4---4---4---4---4
D --6----6----6----6----5---5---5---5---4---4---4---4---4---4
A --4----4----4----4----3---3---3---3---2---2---2---2---2---2
E --x-----x----x----x----x----x---x---x----x---x---x---x----x---x

A5 (x0220x)

Repeat for verse 2

Use part 2 of intro for chorus
  development and support by
dmitry ivanov