rock
 
|tablatures   |lyrics   |discussion forums   |more tabs @ XGuitar.com

Manic Street Preachers tabs

Another Invented Disease bass tab

Artist:	Manic Street Preachers

Album:	Generation Terrorists

Track:	Another Invented Disease

Tuning:	D A D G

Tabbed by Ken May

Intro/Verse
G-|---------------------------|
D-|---------------------------|
A-|---------------------------|
D-|-3-3-0---0--3--1--3--1-1-1-|

Prechorus	       x3
G-|---------------------|----------------|
D-|---------------------|-1-------1------|
A-|-1-----3-----5--3--5-|----------------|
D-|----3----------------|----------------|

Chorus
G-|-----------------------------------------|
D-|-----------------------------------------|
A-|---------------------1--1--1------1------|
D-|-3--3--3---1--1--1-------------1-----3---|

Break
G-|-------------------------|
D-|-------------------------|
A-|-----------------0-------|
D-|-0---2---3---5-----5-3-2-|

If you have any queries or corrections,
email me at: anaris@angelfire.com
  development and support by
dmitry ivanov