rock
 
|tablatures   |lyrics   |discussion forums   |more tabs @ XGuitar.com

Led Zeppelin tabs

Your Time Is Gonna Come bass tab

Date: Tue, 18 Jun 2002 22:27:02 +0300 (EEST)
From: =?ISO-8859-1?Q?jan_bj=F6rklund?= <jan.bjorklund@luukku.com>
Subject: l/led_zeppelin/your_time_is_gonna_come.btab

l/led_zeppelin/Your_time_is_gona_come.btab

TablEdited by Jan Bjorklund   <jani_bjorklund@yahoo.se>
You are welcome to request for tabs!
Fingering and positions as suggested by TablEdit, please use common sense.


TablEdited by Jan Bjorklund
Tuning : E A D G 	Time Signature: 4/4

  |       |       |       |          |       |       |       |         
|----------------------------------|----------------------------------|
|-0--------------------------------|----------------------------------|
|-----------------3-------3--------|----------------------------------|
|----------------------------------|-3-------3------------------------|

  |       |       |       |          |       |       |       |         
|----------------------------------|----------------------------------|
|-0--------------------------------|----------------------------------|
|-----------------3-------3--------|----------------------------------|
|----------------------------------|-3-------3------------------------|

  |       |       |       |          |       |       |       |         
||---------------------------------|----------------------------------|
|*0--------------------------------|----------------------------------|
|*----------------3-------3--------|----------------------------------|
||---------------------------------|-3-------3------------------------|

  |       |       |       |          |       |       |       |         
|----------------------------------|----------------------------------|
|-0--------------------------------|----------------------------------|
|-----------------3-------3--------|----------------------------------|
|----------------------------------|-3-------3------------------------|

  |       |       |       |          |       |       |       |         
|----------------------------------|----------------------------------|
|-0--------------------------------|----------------------------------|
|-----------------3-------3--------|----------------------------------|
|----------------------------------|-3-------3------------------------|

  |       |       |       |          |       |       |       |         
|----------------------------------|----------------------------------|
|-0--------------------------------|----------------------------------|
|-----------------3-------3--------|----------------------------------|
|----------------------------------|-3-------3------------------------|

  |       |       |       |          |       |       |       |         
|----------------------------------|----------------------------------|
|-0--------------------------------|----------------------------------|
|-----------------3-------3--------|----------------------------------|
|----------------------------------|-3-------3------------------------|

  |       |       |       |          |       |       |       |         
|----------------------------------|----------------------------------|
|-0--------------------------------|----------------------------------|
|-----------------3-------3--------|----------------------------------|
|----------------------------------|-3-------3------------------------|

  |       |       |       |          |       |       |       |         
|----------------------------------|----------------------------------|
|-0--------------------------------|----------------------------------|
|-----------------3-------3--------|----------------------------------|
|----------------------------------|-3-------3------------------------|

  |       |       |       |          |       |       |       |         
|----------------------------------|----------------------------------|
|-0--------------------------------|----------------------------------|
|----------------------------------|----------------------------------|
|----------------------------------|----------------------------------|

  |       |       |       |          |       |       |       |         
||---------------------------------|----------------------------------|
|*0---0-------0---0----------------|----------------------------------|
|*---------------------------------|----------------------------------|
||---------------------------------|-3--------------------------------|

  |       |       |       |          |       |       |       |         
|----------------------------------|----------------------------------|
|-0-----------0---0---0-------0----|----------------------------------|
|----------------------------------|----------------------------------|
|----------------------------------|-3--------------------------------|

  |       |       |       |          |       |       |       |         
|----------------------------------|----------------------------------|
|-0-----------0---0---0-------0----|----------------------------------|
|----------------------------------|----------------------------------|
|----------------------------------|-3--------------------------------|

  |       |       |       |          |       |       |       |         
|----------------------------------|---------------------------------||
|-0-----------0---0---0-------0----|---------------------------------*|
|----------------------------------|---------------------------------*|
|----------------------------------|-3-------------------------------||

  |       |       |       |          |       |       |       |         
|----------------------------------|---------------------------------||
|----------------------------------|---------------------------------*|
|----------------------------------|---------------------------------*|
|----------------------------------|---------------------------------||

  |       |       |       |          |       |       |       |         
|----------------------------------|----------------------------------|
|-0--------------------------------|-0--------------------------------|
|----------------------------------|----------------------------------|
|----------------------------------|----------------------------------|



Created with TablEdit http://www.tabledit.com/


............................................................
  development and support by
dmitry ivanov