rock
 
|tablatures   |lyrics   |discussion forums   |more tabs @ XGuitar.com

Led Zeppelin tabs

Whole Lotta Love guitar tab

From: jimmy 
whole lotta love

this is the main riff:

e|-----------------------------------------------------------------------
b|-----------------------------------------------------------------------
g|----------------5--5-5-5--5-5-5-----------------5--5-5-5--5-5-5--------
d|----------------5--5-5-5--5-5-5-----------------5--5-5-5--5-5-5--------
a|-----5^-----5^--7--7-7-5--7-7-7------5^-----5^--7--7-7-7--7-7-7--------
E|-5s7----5s7-----0--0-0-0--0-0-0--5s7----5s7-----0--0-0-0--0-0-0--------
                  
                  -----muted-----                 -----muted-----


From: ksm@eniac.seas.upenn.edu (Ken MacFarlane)
Subject: TAB: "Whole Lotta Love"--Led Zeppelin

I'm assuming that the player knows the song, hence I'm not including lyrics.

Notation: s=sixteenth note, e=eighth note

Intro/Verses:

   s e  s e  s s s s s s s s s    s s s s s s s s s s s s s s s s
E|------------------------------|----------------------------------|
B|------------------------------|----------------------------------|
G|------------------------------|----------------------------------|
D|---0----0--2-------2-------2--|-------2-------2-------2-------2--|
A|-2----2-----------------------|----------------------------------|
E|-------------0-0-0---0-0-0----|-0-0-0---0-0-0---0-0-0---0-0-0----|

For the intro, play the whole figure straight through twice.  For the verses,
just play the first half.

The low E's are sort of optional -- if it's tough, just play the high E's
by themselves, or kindly ask a bass player to play them.

Chorus: "Wanna Whole Lotta Love?"

   s s s s s e (slide)
E|-------------------|
B|-------------------|
G|-------------------|
D|-0-0-0-0-0----9\---| play 4 times
A|-----------7-------|
E|-------------------|


Sorry, but I don't have the guitar solo/interlude/etc. but this should be a
good start.
--
Ken MacFarlane              | email:  ksm@eniac.seas.upenn.edu 
CETS Technical Staff        |         ksm@pender.ee.upenn.edu  
University of Pennsylvania  | phone:  (215)898-2476 (057 Moore) 
Philadelphia, PA  19104     |         (215)222-7967 (Home)     

From: Steve L Portigal 

I don't know if this is an easy-to-get solo in USA or EUROPE. Here it's not.
Anyway, this is a version I got from a chilean magazine and I'd like your
opinion about how accurate it is.

-----------------------------------------------------------------------------
Whole Lotta Love (Led Zeppelin)

Main Riff:

e ---------------------------------------------------------------------------|
B ---------------------------------------------------------------------------|
G -----------------9--------9--------9---------------------------------------|
D -----------------9--------9--------9---------------------------------------|
A --------5----5---7--------7--------7---------------------------------------|
E --(5)>7----7-------0-0-0----0-0-0------------------------------------------|


Solo:

e -------------12--------------------------------------|
B ----10/12-------15--12-------------------------------|
G ------------------------15p14p12--14p12--14>(16)-----|
D -----------------------------------------------------|
A -----------------------------------------------------|
E -----------------------------------------------------|

         /-3--\ /-3--\
e -------------------------------------------------|
B -------------------------------------------------|
G -2/4---4p2--0--2p0-0--2p0------------------------|
D ---------------------------2p0--2p0--------------|
A -------------------------------------2-----------|
E ---------------------------------------------0---|


e ----------12-10>(12)--12--15--10>(12)-|-12 15>(19)>15--12----15p12-|
B -10>(12)--12--------------------------|-------------------14-------|
G --------------------------------------|----------------------------|
D --------------------------------------|----------------------------|
A --------------------------------------|----------------------------|
E --------------------------------------|----------------------------|

  /------3------\     /---3---\
e ----19>(21)-19---18-17--15-----15-----|---------------------------17-19----|
B -17------------------------17-----17--|---17-19-19>(21)--19>(21)--------17-|
G --------------------------------------|------------------------------------|
D --------------------------------------|------------------------------------|
A --------------------------------------|------------------------------------|
E --------------------------------------|------------------------------------|


Tabbed by Marcelo Melero.


--
-------------------------------------------------------------------------------
 Marcelo Melero			"Me gusta el vino porque el vino es bueno"
 mmelero@ranco.ing.puc.cl				-- Tito Fernandez
-------------------------------------------------------------------------------

--
From: Steve L Portigal 

I have just read an interview with Page where he explains how exactly he plays
the riff in "Whole lotta love".
The tablature in the archive is fine, but the original sounds a little differen
t. Here we go :
 
E--------------|--------------
B--------------|--------------
G--------------|--------------
D----0---0-----|--------------       and repeate.
A----5~--5~-7--|-7-7-7---7-7-7
E--7---7----0--| 0-0-0---0-0-0
 
 
~ stands for slight bend, which is the trick here. D sounds on two strings
simultaniousely.
 
Have fun !
Vick.
  development and support by
dmitry ivanov