rock
 
|tablatures   |lyrics   |discussion forums   |more tabs @ XGuitar.com

Led Zeppelin tabs

Whole Lotta Love bass tab

Whole lotta love-Bass
Led Zeppelin II
John-paul Jones

This is just a guideline and just shows the main riffs,
Hope it's of some use to somebody......

Intro:

G|----------------------------------|
D|----------------------------------|
A|--7-777-777-777-777-777-777---5--5|
E|-----------------------------7--7-|

Main riff:

G|------------------|
D|------------------|
A|--7-777-777---5--5|
E|-------------7--7-|

Woman, youuu neeed.....

G|----------|
D|----------|
A|-7--------|
E|----5-----|

Fade out:

G|------------------|
D|-----7------------|
A|--5----7-777-777--|
E|-7--7-------------|

 
 Well, that's my contribution to society for the millennium.
 Comments, corrections, death threaths etc. to:
 
  development and support by
dmitry ivanov