rock
 
|tablatures   |lyrics   |discussion forums   |more tabs @ XGuitar.com

Led Zeppelin tabs

Travelling Riverside Blues bass tab

Travelling Riverside Blues - Led Zeppelin

This song is played fast, so don't take the spaces between notes so seriously. 

  intro/beginning of second, third, fourth, and last verse                               
G|----------35-3-------------------------35-3-----------------------------35-3----------------|
D|----5--05-----5-03-2-0------02----5-05-----5-033-22-00------02----5--05-----5-03-2-0------02|
A|-----------------------3-323---------------------------3-323-------------------------3-323--|
E|3332--------------------------3332----------------------------3332--------------------------|

  verse                                                        "I know my baby if I see her in.."
G|--------------------------------------------------------------------5-553----------------------
D|----5---5-553-------5-----------5-5-3--5-553------5-------5-----5--5-5---55-----2-2-33-44-05-5-
A|-------5-5---53--------02223-035------5-5---5--------02235--2-22------------2-2----------------
E|3-3-------------3-3---------------------------3-3----------------------------------------------

                                                          "if I see her in the dark" 
----------------------------------7-775-----------------------------------------------------|
5---5-553-------5----------------5-5---75---------------5------5-5-0555-53---------------53-|
---5-5---5--------02-20344-5-5-5----------03-3--------03--03-3------------5-0355-5-05-035--5|
----------5-3-3--------------------------------012-023--------------------------------------|

tabbed by Achilles 
  development and support by
dmitry ivanov