rock
 
|tablatures   |lyrics   |discussion forums   |more tabs @ XGuitar.com

Led Zeppelin tabs

Trampled Underfoot bass tab

TRAMPLED UNDER FOOT Bass Tab
--------------------

Transcribed by Jeff Strawman, jstraw at led dash zeppelin dot org
http://www.led-zeppelin.org/

Standard Tuning

G|----------------|----------------|----------------|----------------|
D|----------------|----------------|----------------|----------------|
A|----------------|----------------|----------------|1-------3-------|
E|----------------|----------------|3---3---3-333---|--------------3-|
                                    \---Repeat 5X--/

G|----------------|----------------|----------------|----------------|
D|----------------|----------------|----------------|----------------|
A|----------------|1-------3-------|----------------|1-------3-------|
E|3---3---3-333---|----------------|3---3---3-333---|----------------|
  \---Repeat 6X--/                  \---Repeat 7X--/

G|----------------|----------------|----------------|----------------|
D|1-------3-3-----|----------------|----------------|----------------|
A|----------------|----------------|----------------|----------------|
E|--------------1-|3---3---3---3---|3---3---3---3---|3---3---3-333---|
                                                     \---Repeat 6X--/

G|----------------|----------------|----------------|----------------|
D|----------------|----------------|----------------|----------------|
A|1-------3-------|----------------|----------------|----------------|
E|----------------|3---3---3---3---|3---3---3---3---|3---3---3-333---|
                                                     \---Repeat 2X--/

G|----------------|----------------|----------------|----------------|
D|----------------|----------------|----------------|----------------|
A|----------------|----------------|----------------|1-------3-------|
E|3---3---3---3---|3---3---3-333---|3---3---3-333---|----------------|

G|----------------|----------------|----------------|----------------|
D|----------------|----------------|1-------3-3-----|----------------|
A|----------------|1-------3-------|----------------|----------------|
E|3---3---3---3---|----------------|--------------1-|3---3---3---3---|
  \---Repeat 7X--/

G|----------------|----------------|----------------|----------------|
D|----------------|----------------|----------------|-------------234|
A|----------------|----------------|----------------|----------------|
E|3---3---3---3---|3---3---3---3---|3---------------|----------------|

G|----------------|----------------|----------------|----------------|
D|5---------------|----------------|----------------|--------------03|
A|----------------|----------------|----------------|----------------|
E|----------------|--------------12|3---3---3-333---|3---------------|
                                    \---Repeat 5X--/

G|----------------|----------------|----------------|----------------|
D|5---------------|-----------35---|----------------|----------------|
A|----------------|----------------|----------------|----------------|
E|----------------|----------------|5---5---5---5---|5---5---5---5---|

G|----------------|----------------|----------------|----------------|
D|----------------|----------------|----------------|----------------|
A|----------------|1-------3-------|----------------|----------------|
E|3---3---3-333---|--------------3-|3---3---3---3---|3---3---3---3---|
  \---Repeat 5X--/

G|----------------|----------------|----------------|----------------|
D|----------------|----------------|----------------|----------------|
A|----------------|1-------3-------|----------------|----------------|
E|3---3---3-333---|----------------|3---3---3---3---|3---3---3---3---|
  \---Repeat 5X--/

G|----------------|----------------|----------------|
D|----------------|----------------|1-------3-3-----|
A|----------------|1-------3-------|--------------3-|
E|3---3---3-333---|----------------|----------------|
  \---Repeat 6X--/

G|----------------|----------------|
D|----------------|----------------|
A|----------------|----------------|
E|3---3---3---3---|3---3---3---3---|

G|----------------|----------------|----------------|----------------|
D|----------------|----------------|----------------|----------------|Repeat
A|----------------|----------------|----------------|----------------|  to
E|3---3---3---3---|3---3---3---3---|3---3---3---3---|3---3---3---3---| fade
  development and support by
dmitry ivanov