rock
 
|tablatures   |lyrics   |discussion forums   |more tabs @ XGuitar.com

Led Zeppelin tabs

The Wanton Song bass tab

The Wanton Song
-Led Zeppelin
Tabbed by Joey Lombardi (permanentwaves@hotmail.com)

Standard Tuning (G,D,A,E)


Verse

G|--------------------------------------------|
D|---55--55----55--55----55--55----55--55-----|
A|--------------------------------------------|
E|-33--33----33--33----33--33----33--33-------|

G|------------------------------------------------------------|
D|---55--55----55--55----55--55----55--55------3--------------|
A|----------------------------------------3-4-5-5--5-4-3-1~---|
E|-33--33----33--33----33--33----33--33-----------------------|

Chorus

G|------------------------------------------------6--|
D|--------------------------------------------3-6----|
A|-------------2~-----2--2--3~-----3-3-3-4--4--------|
E|-1--1--1-4-5---------------------------------------|

G|---------------------------------------------------|
D|---------------------------------------------------|
A|-5~~---1~~---------1-1-1-1-1-3-4-5~~---1~~---------| <--- x2
E|-------------3~~-----------------------------3~~---|

Bridge

G|--------------------------------------------------------|
D|------------------------------------------5-5-----------|
A|-1--1--1-0-1-3--3--3--3---------------------------0-----|
E|-------------------------0-1--1--1-1-1-3------3---------|

G|--------------------------------------------------------|
D|---------------------232--------------------------------|
A|-1--1--1-0-1-3--3--3------------------------------------|
E|-------------------------0-1--1--1-1-1-3--3--3----------|

Ending

G|----------------------------------------------------------|
D|----------------------------------------------------------|
A|-5-4-3-1~~---5-4-3-1~~---5-4-3-1~~---5-4-3-1~~------------|
E|----------------------------------------------------------|

Obviously JPJ does a few fills in the bridge and chorus, so watch out for them. Otherwise, this should give you an idea of the song.
  development and support by
dmitry ivanov