rock
 
|tablatures   |lyrics   |discussion forums   |more tabs @ XGuitar.com

Led Zeppelin tabs

The Song Remains The Same bass tab

Date: Tue, 18 Jun 2002 22:26:07 +0300 (EEST)
From: =?ISO-8859-1?Q?jan_bj=F6rklund?= <jan.bjorklund@luukku.com>
Subject: l/led_zeppelin/the_song_remains_the_same.btab

l/led_zeppelin/The_song_remains_the_same.b

TablEdited by Jan Bjorklund   <jani_bjorklund@yahoo.se>
You are welcome to request for tabs!
Fingering and positions as suggested by TablEdit, please use common sense.


TablEdited by Jan Bjorklund
Tuning : E A D G 	Time Signature: 4/4

  |               |               |               |                 
|-------------------------------------------------7/----5----------|
|------------------------------------------------------------------|
|------------------------------------------------------------------|
|------------------------------------------------------------------|

  |               |               |               |                 
|-------------------------------------------------7/----4----------|
|------------------------------------------------------------------|
|------------------------------------------------------------------|
|------------------------------------------------------------------|

  |               |               |               |                 
|-------------------------------------------------7/----4----------|
|------------------------------------------------------------------|
|------------------------------------------------------------------|
|------------------------------------------------------------------|

  |               |               |               |                 
|-------------------------------------------------------7----------|
|------------------------------------------------------------------|
|------------------------------------------------------------------|
|------------------------------------------------------------------|

  |               |               |               |                 
|-------------------------------------------------7----------------|
|------------------------------------------------------------------|
|-5-----------5---5-----------5-----5-----5---------------------5--|
|------------------------------------------------------------------|

  |               |               |               |                 
|-------------------------------------------------7----------------|
|------------------------------------------------------------------|
|---------------5-----------5---------5---5------------------------|
|------------------------------------------------------------------|

  |               |               |               |                 
|-------------------------------------------------------2----------|
|-----------------------------------------------------------2------|
|-0-------------------------------------------------------------0--|
|------------------------------------------------------------------|

  |               |               |               |                 
|-------------------------------------------------2----------------|
|------------------------------------------------------------------|
|-----------------------------------------------------0------------|
|------------------------------------------------------------------|

  |               |               |               |                 
|------------------------------------------------------------------|
|------------------------------------------------------------------|
|-0---------------0---------------------0-------0---0--------------|
|------------------------------------------------------------------|

  |               |               |               |                 
|------------------------------------------------------------------|
|------------------------------------------------------------------|
|-0-------------------------------------0-------0---0--------------|
|------------------------------------------------------------------|

  |               |               |               |                 
|-------------------------------------------------2----------------|
|-------------------------------------------------------------2----|
|-0---------0---0-----------------------0--------------------------|
|------------------------------------------------------------------|

  |               |               |               |                 
|-------------------------------------------------2----------------|
|------------------------------------------------------------------|
|-0-----------0-----0-------------------0-----------------------0--|
|------------------------------------------------------------------|

  |               |               |               |                 
|-----------------2-------------------------------2----------------|
|------------------------------------------------------------------|
|-------------0-------------------------0-------------0------------|
|------------------------------------------------------------------|

  |               |               |               |                 
|------------------------------------------------------------------|
|------------------------------------------------------------------|
|-0-----------0---0-----------------------0-------0---0------------|
|------------------------------------------------------------------|

  |               |               |               |                 
|------------------------------------------------------------------|
|-0-----------0---0-----------------------0-----------0------------|
|------------------------------------------------------------------|
|------------------------------------------------------------------|

  |               |               |               |                 
|-2---1-------2---2-----------------------0-------2---2------------|
|-------------------------------------------------------------0----|
|------------------------------------------------------------------|
|------------------------------------------------------------------|

  |               |               |               |                 
|-----------------------------------------------------7------------|
|-------------------------------------------------7----------------|
|-5-----------5---5-------------------5----------------------------|
|------------------------------------------------------------------|

  |               |               |               |                 
|-7-----------7---7------------------------------------------------|
|-----------------------------------------5-----------7------------|
|------------------------------------------------------------------|
|------------------------------------------------------------------|

  |               |               |               |                 
|------------------------------------------------------------------|
|-0-----------0---0-----------------------0-----------0------------|
|------------------------------------------------------------------|
|------------------------------------------------------------------|

  |               |               |               |                 
|-2-----------2---2-----------------------0-------2---2------------|
|-------------------------------------------------------------0----|
|------------------------------------------------------------------|
|------------------------------------------------------------------|

  |               |               |               |                 
|-----------------------------------------------------7-------7----|
|-------------------------------------------------7----------------|
|-5-----------5---5-----------------------5------------------------|
|------------------------------------------------------------------|

  |               |               |               |                 
|-7-----------7---7------------------------------------------------|
|-----------------------------------------5-----------7------------|
|------------------------------------------------------------------|
|------------------------------------------------------------------|

  |               |               |               |                 
|-----------------------------------------7-------9-------10-------|
|------------------------------------------------------------------|
|-------------------------0-------0--------------------------------|
|-10---------------------------------------------------------------|

  |               |               |               |                 
|---------12--------------14/-----------------------------12-------|
|-----------------------------15----------15------------------12---|
|------------------------------------------------------------------|
|------------------------------------------------------------------|

  |               |               |               |                 
|-----------------9/-----------------------------------------------|
|---------12--------13----10--------------9/-----------------------|
|---------------------------------------------11----------12-------|
|------------------------------------------------------------------|

  |               |               |               |                 
|---------4--------------------------------------------------------|
|-----------------5-----------------------3-------2----------------|
|---------------------------------------------------------5--------|
|------------------------------------------------------------------|

  |               |               |               |                 
|-------------------------------------------------2----------------|
|------------------------------------------------------------------|
|-0-----------0---0-----------------------0-----------0------------|
|------------------------------------------------------------------|

  |               |               |               |                 
||------------------------------------------------2----------------|
|*-----------------------------------------------------------------|
|*0-----------0---0-----------------------0-----------0------------|
||-----------------------------------------------------------------|

  |               |               |               |                 
|-------------------------------------------------2----------------|
|------------------------------------------------------------------|
|-0-----------0---0-----------------------0-----------0------------|
|------------------------------------------------------------------|

  |               |               |               |                 
|-----------------------------------------------------------------||
|-----------------------------------------------------------------||
|-0-----------0---0---------------0-------------------------------||
|-----------------------------------------3-----------3---3-------||

>1|               |               |               |                 
|------------------------------------------------------------------|
|------------------------------------------------------------------|
|-0-----------0---0---------------0--------------------------------|
|-----------------------------------------3-----------3------------|

  |               |               |               |                 
|------------------------------------------------------------------|
|------------------------------------------------------------------|
|-0-----------0---0------------------------------------------------|
|-----------------------------------------3-----------3------------|

  |               |               |               |                 
|------------------------------------------------------------------|
|------------------------------------------------------------------|
|-0-----------0---0------------------------------------------------|
|-----------------------------------------3-----------3------------|

  |               |               |               |                 
|------------------------------------------------------------------|
|------------------------------------------------------------------|
|-0-----------0---0-----------------------0-----------0------------|
|------------------------------------------------------------------|

  |               |               |               |                 
|------------------------------------------------------------------|
|-0-----------0---0-----------------------0-----------0------------|
|------------------------------------------------------------------|
|------------------------------------------------------------------|

  |               |               |               |                 
|-2-----------2---2-------------------0-----------2----------------|
|-------------------------------------------------------------0----|
|------------------------------------------------------------------|
|------------------------------------------------------------------|

  |               |               |               |                 
|-----------------7-------------------------------7----------------|
|-----------------------------------------7-----------7------------|
|-5-----------5-------------------------------------------5--------|
|------------------------------------------------------------------|

  |               |               |               |                 
|-------------------------------------0-----------2---2------------|
|-0-----------0---0------------------------------------------------|
|------------------------------------------------------------------|
|------------------------------------------------------------------|

  |               |               |               |                 
|-7-----------------------------------------------7----------------|
|-------------7-----------------------------------------------7----|
|-----------------5-----------------------5------------------------|
|------------------------------------------------------------------|

  |               |               |               |                 
|-----------------2-----------------------0-------2---2------------|
|-0-----------0----------------------------------------------------|
|------------------------------------------------------------------|
|------------------------------------------------------------------|

  |               |               |               |                 
|-------------------------------------------------7---7------------|
|-----------------------------------------7------------------------|
|-5-----------5---5------------------------------------------------|
|------------------------------------------------------------------|

  |               |               |               |                 
|-7-----------------------------------------------7----------------|
|-------------7----------------------------------------------------|
|-------------------------5---------------5---------------5--------|
|------------------------------------------------------------------|

  |               |               |               |                 
|-----------------------------------------0-------2---2------------|
|-0-----------0---0------------------------------------------------|
|------------------------------------------------------------------|
|------------------------------------------------------------------|

  |               |               |               |                 
|-10/--------------------------------------------------------------|
|-----8-------7----------------------------------------------------|
|------------------------------------------------------------------|
|-------------------------10--------------10------10--10-----------|

  |               |               |               |                 
|-10---------------------------------------------------------------|
|-----10------7---------------------------------------7------------|
|------------------------------------------------------------------|
|-------------------------10--------------10-----------------------|

  |               |               |               |                 
|-10/--------------------------------------------------------------|
|-----8-------7---------------------------------------7------------|
|------------------------------------------------------------------|
|-------------------------10--------------10-----------------------|

  |               |               |               |                 
|-10---------------------------------------------------------------|
|-----9-------7---------------------------------------7------------|
|------------------------------------------------------------------|
|-------------------------10--------------10-----------------------|

  |               |               |               |                 
|-10---------------------------------------------------------------|
|-----8-------7---------------------------------------7------------|
|------------------------------------------------------------------|
|-------------------------10--------------10-----------------------|

  |               |               |               |                 
|-10---------------------------------------------------------------|
|-----9-------7---------------------------------------7------------|
|------------------------------------------------------------------|
|-------------------------10--------------10-----------------------|

  |               |               |               |                 
|-------------2----------------------------------------------------|
|-------------------------0-----------------------0-------0--------|
|------------------------------------------------------------------|
|------------------------------------------------------------------|

  |               |               |               |                 
|------------------------------------------------------------------|
|-0-------0---------------0-------0-------0---------------0--------|
|------------------------------------------------------------------|
|------------------------------------------------------------------|

  |               |               |               |                 
|------------------------------------------------------------------|
|-0----------------------------------------------------------------|
|------------------------------------------------------------------|
|------------------------------------------------------------------|

  |               |               |               |                 
|------------------------------------------------------------------|
|------------------------------------------------------------------|
|-3/------0-----------------------3--------------------------------|
|---------------------------------------------------------------3--|

  |               |               |               |                 
|------------------------------------------------------------------|
|------------------------------------------------------------------|
|---------------------------------------------------------0-----1--|
|------------------------------------------------------------------|

  |               |               |               |                 
|-----------------------------------------0-----0---------0--------|
|---------------0-------2------------------------------------------|
|-------2----------------------------------------------------------|
|------------------------------------------------------------------|

  |               |               |               |                 
|-0----------------------------------------------------------------|
|------------------------------------------------------------------|
|---------------------------------------------------------------3--|
|------------------------------------------------------------------|

  |               |               |               |                 
|------------------------------------------------------------------|
|------------------------------------------------------------------|
|-------------------------------3----------------------------------|
|---------------------------------------------------------------3--|

  |               |               |               |                 
|------------------------------------------------------------------|
|------------------------------------------------------------------|
|-------------------------------------------------------0----------|
|------------------------------------------------------------------|

  |               |               |               |                 
|-----------------------------------------0-------------0----------|
|-------0-------------------------2--------------------------------|
|-2----------------------------------------------------------------|
|------------------------------------------------------------------|

  |               |               |               |                 
|-0----------------------------------------------------------------|
|------------------------------------------------------------------|
|------------------------------------------------------------------|
|------------------------------------------------------------------|

  |               |               |               |                 
|------------------------------------------------------------------|
|------------------------------------------------------------------|
|-3-----------------------------3----------------------------------|
|-------------------------------------------------------1----------|

  |               |               |               |                 
|------------------------------------------------------------------|
|------------------------------------------------------------------|
|---------------------------------1---------------2----------------|
|-2---------------3------------------------------------------------|

  |               |               |               |                 
|------------------------------------------------------------------|
|---------------------------------1-------------2------------------|
|-3-------------4--------------------------------------------------|
|------------------------------------------------------------------|

  |               |               |               |                 
|------------------------------------------------------------------|
|-3-----------1-------------------3-----2--------------------------|
|-----------------------------------------------3------------------|
|-------------------------------------------------------1----------|

  |               |               |               |                 
|------------------------------------------------------------------|
|------------------------------------------------------------------|
|-------------------------------3----------------------------------|
|-----------------------------------------------1---------------3--|

  |               |               |               |                 
|------------------------------------------------------------------|
|------------------------------------------------------------------|
|------------------------------------------------------------------|
|------------------------------------------------------------------|

  |               |               |               |                 
|------------------------------------------------------------------|
|------------------------------------------------------------------|
|------------------------------------------------------------------|
|------------------------------------------------------------------|

  |               |               |               |                 
|------------------------------------------------------------------|
|------------------------------------------------------------------|
|------------------------------------------------------------------|
|------------------------------------------------------------------|

  |               |               |               |                 
|------------------------------------------------------------------|
|------------------------------------------------------------------|
|-2-----3-------------------------2-------3------------------------|
|---------------------------------------------------------------3--|

  |               |               |               |                 
|------------------------------------------------------------------|
|------------------------------------------------------------------|
|---------------------------------------0-------2------------------|
|------------------------------------------------------------------|

  |               |               |               |                 
|-----------------------0------------------------------------------|
|---------0-------2---------------------2-------0------------------|
|-------------------------------------------------------2----------|
|---------------------------------------------------------------3--|

  |               |               |               |                 
|------------------------------------------------------------------|
|------------------------------------------------------------------|
|------------------------------------------------------------------|
|------------------------------------------------------------------|

  |               |               |               |                 
|------------------------------------------------------------------|
|------------------------------------------------------------------|
|-3-------------------------------3--------------------------------|
|------------------------------------------------------------------|

  |               |               |               |                 
|------------------------------------------------------------------|
|------------------------------------------------------------------|
|---------------------------------------0-------2------------------|
|-3----------------------------------------------------------------|

  |               |               |               |                 
|-----------------------------------------------0------------------|
|---------------0-----------------------3--------------------------|
|-------4----------------------------------------------------------|
|------------------------------------------------------------------|

  |               |               |               |                 
|-0-------------------------------0---------------0----------------|
|------------------------------------------------------------------|
|------------------------------------------------------------------|
|------------------------------------------------------------------|

  |               |               |               |                 
|------------------------------------------------------------------|
|-------------------------------------------------------3-------4--|
|-3-------------------------------3--------------------------------|
|------------------------------------------------------------------|

  |               |               |               |                 
|------------------------------------------------------------------|
|---------------2-----------------1--------------------------------|
|-----------------------------------------------4---------------2--|
|------------------------------------------------------------------|

  |               |               |               |                 
|------------------------------------------------------------------|
|------------------------------------------------------------------|
|---------------1--------------------------------------------------|
|-------------------------------4---------------2---------------1--|

  |               |               |               |                 
|------------------------------------------------------------------|
|---------------------------------------------------------3--------|
|-----------------------------------------0-------3----------------|
|------------------------------------------------------------------|

  |               |               |               |                 
|------------------------------------------------------------------|
|------------------------------------------------------------------|
|---------3-------0------------------------------------------------|
|-------------------------1-------------------------------------3--|

  |               |               |               |                 
|------------------------------------------------------------------|
|------------------------------------------------------------------|
|------------------------------------------------------------------|
|-----------------------------------------3-----------3------------|

  |               |               |               |                 
|------------------------------------------------------------------|
|------------------------------------------------------------------|
|------------------------------------------------------------------|
|-3-----------3---3-----------------------3-----------3------------|

  |               |               |               |                 
|-------------------------------------------------2---------------||
|-----------------------------------------------------------------*|
|-0-----------0---0-----------------------0-----------0-----------*|
|-----------------------------------------------------------------||

>2|               |               |               |                 
|------------------------------------------------------------------|
|------------------------------------------------------------------|
|-0-----------0---0---------------0--------------------------------|
|-----------------------------------------3-----------3------------|

  |               |               |               |                 
|-7-----------7---7------------------------------------------------|
|-----------------------------------------5-----------7------------|
|------------------------------------------------------------------|
|------------------------------------------------------------------|

  |               |               |               |                 
|-----------------------------------------7-------9-------10-------|
|------------------------------------------------------------------|
|-------------------------0-------0--------------------------------|
|-10---------------------------------------------------------------|

  |               |               |               |                 
|---------4--------------------------------------------------------|
|-----------------5-----------------------3-------2----------------|
|---------------------------------------------------------5--------|
|------------------------------------------------------------------|

  |               |               |               |                 
|-------------------------------------------------2----------------|
|------------------------------------------------------------------|
|-0-----------0---0-----------------------0-----------0------------|
|------------------------------------------------------------------|

  |               |               |               |                 
|-------------2----------------------------------------------------|
|-------------------------0---------------0-------0---0------------|
|------------------------------------------------------------------|
|------------------------------------------------------------------|

  |               |               |               |                 
|-10----------------------------------------------10---------------|
|-----9---------------------------------------------------7--------|
|------------------------------------------------------------------|
|-------------8-----------10--------------10-----------------------|

  |               |               |               |                 
|-----------------9-------------------------------7----------------|
|-----------------------------------------7---------------7--------|
|------------------------------------------------------------------|
|---------10--------------10------10-------------------------------|

  |               |               |               |                 
|------------------------------------------------------------------|
|-0-------0-------0-------0-------0-------0-------0-------0--------|
|------------------------------------------------------------------|
|------------------------------------------------------------------|

  |               |               |               |                 
|-2-------2-------2-------2-------2-------2-------2-------2--------|
|---------0-------0-------0-------0-------0-------0-------0--------|
|------------------------------------------------------------------|
|------------------------------------------------------------------|

  |               |               |               |                 
|------------------------------------------------------------------|
|-0-------0-------0-------0---0---0-------0-------0-------0---0----|
|------------------------------------------------------------------|
|------------------------------------------------------------------|

  |               |               |               |                 
|------------------------------------------------------------------|
|-0-------0---0---0-------0-------0-------0-------0-------0--------|
|------------------------------------------------------------------|
|------------------------------------------------------------------|

  |               |               |               |                 
|------------------------------------------------------------------|
|------------------------------------------------------------------|
|------------------------------------------------------------------|
|-3-------3-------3-------3-------3-------3-------3-------3--------|

  |               |               |               |                 
|------------------------------------------------------------------|
|-----------------------------------------------0-2----------------|
|---------------------------------------------------------2--------|
|-3-------3-------3-------3-------3-------3------------------------|

  |               |               |               |                 
|-------------------------------------------------2----------------|
|-------------------------2----------------------------------------|
|-0----------------------------------------------------------------|
|------------------------------------------------------------------|

  |               |               |               |                 
|-------------------------------------------------9-----9----------|
|---------------------------------7--------------------------------|
|---------7---------------------10---------------------------------|
|------------------------------------------------------------------|

  |               |               |               |                 
|------------------------------------------------------------------|
|------------------------------------------------------------------|
|------------------------------------------------------------------|
|-3-------------------------------3-------3-------3----------------|

  |               |               |               |                 
|------------------------------------------------------------------|
|-------------------------------------------------2----------------|
|-------------------------------------------------------2-------0--|
|-3-------------3---------3-------3-----3--------------------------|

  |               |               |               |                 
|-------------------------------------------------2----------------|
|-----------------------2------------------------------------------|
|------------------------------------------------------------------|
|------------------------------------------------------------------|

  |               |               |               |                 
|------------------------------------------------------------------|
|-------2----------------------------------------------------------|
|---------------------------------0-------------0---------2--------|
|---------------------------------------3--------------------------|

  |               |               |               |                 
|-----------------------------------------------4-5----------------|
|-----------------------5------------------------------------------|
|-3----------------------------------------------------------------|
|------------------------------------------------------------------|

  |               |               |               |                 
|---------12/-11---------------------------------------------------|
|---------------------------------10-------------------------------|
|-------------------------------------------------10----10------10-|
|------------------------------------------------------------------|

  |               |               |               |                 
|-----------------------------------------------0------------------|
|------------------------------------------------------------------|
|-------------------------3-------------3--------------------------|
|------------------------------------------------------------------|

  |               |               |               |                 
|-------12/--------------------------------------------------------|
|-----------12------------------10---------------------------------|
|-----------------------------------------------10--------------3--|
|------------------------------------------------------------------|

  |               |               |               |                 
|------------------------------------------------------------------|
|------------------------------------------------------------------|
|---------3-------3-----2-------2-------2-------0------------------|
|------------------------------------------------------------------|

  |               |               |               |                 
|------------------------------------------------------------------|
|------------------------------------------------------------------|
|---------0-----0-------0------------------------------------------|
|-------------------------------3-------3---------2-------0--------|

  |               |               |               |                 
|------------------------------------------------------------------|
|------------------------------------------------------------------|
|------------------------------------------------------------------|
|-0----------------------------------------------------------------|

  |               |               |               |                 
|------------------------------------------------------------------|
|------------------------------------------------------------------|
|------------------------------------------------------------------|
|------------------------------------------------------------------|

  |               |               |               |                 
|-9-----------9----------------------------------------------------|
|-----------------7------------------------------------------------|
|-----------------------------------------0-------0---0------------|
|------------------------------------------------------------------|

  |               |               |               |                 
|-------------9----------------------------------------------------|
|-7---------------7------------------------------------------------|
|-----------------------------------------0-------0---0------------|
|------------------------------------------------------------------|

  |               |               |               |                 
|-------------9----------------------------------------------------|
|-7---------------7------------------------------------------------|
|-----------------------------------------0-------0---0------------|
|------------------------------------------------------------------|

  |               |               |               |                 
|-------------9----------------------------------------------------|
|-7---------------7------------------------------------------------|
|-----------------------------------------0-------0---0------------|
|------------------------------------------------------------------|

  |               |               |               |                 
|-9-----------9---9------------------------------------------------|
|------------------------------------------------------------------|
|-----------------------------------------0-------0---0------------|
|------------------------------------------------------------------|

  |               |               |               |                 
|-------------9---9------------------------------------------------|
|-7----------------------------------------------------------------|
|------------------------------------------------------------------|
|-----------------------------------------3-----------3------------|

  |               |               |               |                 
|-9-----------9---9------------------------------------------------|
|------------------------------------------------------------------|
|------------------------------------------------------------------|
|-----------------------------------------3-----------3------------|

  |               |               |               |                 
|-9-----------9---9------------------------------------------------|
|------------------------------------------------------------------|
|------------------------------------------------------------------|
|-----------------------------------------3-----------8------------|

  |               |               |               |                 
|------------------------------------------------------------------|
|-0-----------0---0-----------------------0-----------0------------|
|------------------------------------------------------------------|
|------------------------------------------------------------------|

  |               |               |               |                 
|-7-----------7---7------------------------------------------------|
|-----------------------------------------5-----------7------------|
|------------------------------------------------------------------|
|------------------------------------------------------------------|

  |               |               |               |                 
|---------4--------------------------------------------------------|
|-----------------5-----------------------3-------2----------------|
|---------------------------------------------------------5--------|
|------------------------------------------------------------------|

  |               |               |               |                 
|-------------------------------------------------2----------------|
|------------------------------------------------------------------|
|-0-----------0---0-----------------------0-----------0------------|
|------------------------------------------------------------------|

  |               |               |               |                 
|-9----------------------------------------------------------------|
|-------------7---7-------------------------------7----------------|
|---------------------------------0---0---------------0------------|
|------------------------------------------------------------------|

  |               |               |               |                 
|-------------9---9------------------------------------------------|
|-7-----------------------------------------------7----------------|
|-----------------------------------------0-------------------0----|
|------------------------------------------------------------------|

  |               |               |               |                 
|-------------9---9------------------------------------------------|
|-7-----------------------------------------------7----------------|
|-----------------------------------------0------------------------|
|-----------------------------------------------------3------------|

  |               |               |               |                 
|-------------9---9-------9----------------------------------------|
|-7----------------------------------------------------------------|
|------------------------------------------------------------------|
|-----------------------------------------3-----------3------------|

  |               |               |               |                 
|-------------9---9------------------------------------------------|
|-7----------------------------------------------------------------|
|------------------------------------------------------------------|
|-----------------------------------------3-----------3------------|

  |               |               |               |                 
|-------------9---9------------------------------------------------|
|-7----------------------------------------------------------------|
|------------------------------------------------------------------|
|-----------------------------------------3-----------3------------|

  |               |               |               |                 
|-------------9---9------------------------------------------------|
|-7----------------------------------------------------------------|
|---------------------------------0--------------------------------|
|-----------------------------------------6-------8-------9--------|

  |               |               |               |                 
|-----------------------------2---2---2-----------2----------------|
|-0-----------0---0-----------------------0---0-------0------------|
|------------------------------------------------------------------|
|------------------------------------------------------------------|

  |               |               |               |                 
|-0-----------2---2-------------------0---------------0------------|
|-------------------------------------------------------------0----|
|------------------------------------------------------------------|
|------------------------------------------------------------------|

  |               |               |               |                 
|-------------------------------------------------7----------------|
|-----------------------------------------7------------------------|
|-5-----------5---5-----------------------------------5------------|
|------------------------------------------------------------------|

  |               |               |               |                 
|-------------------------------------2---2-------0---0-------7----|
|-0-----------0---0------------------------------------------------|
|------------------------------------------------------------------|
|------------------------------------------------------------------|

  |               |               |               |                 
|-7----------------------------------------------------------------|
|-------------------------------------------------5---7------------|
|-------------5---5-----------------------5------------------------|
|------------------------------------------------------------------|

  |               |               |               |                 
|-7-----------7---7---5--------------------------------------------|
|-------------------------------------5-----------7---7------------|
|-------------------------------------------------------------5----|
|------------------------------------------------------------------|

  |               |               |               |                 
|-------------------------------------------------7----------------|
|-----------------------------------------7------------------------|
|-5-----------5---5-----------------------------------5------------|
|------------------------------------------------------------------|

  |               |               |               |                 
|-----------------------------------------------------2------------|
|-0-----------0---0-----------------------0------------------------|
|------------------------------------------------------------------|
|------------------------------------------------------------------|

  |               |               |               |                 
|-------------2----------------------------------------------------|
|-------------------------0-----------------------0-------0--------|
|------------------------------------------------------------------|
|------------------------------------------------------------------|

  |               |               |               |                 
|------------------------------------------------------------------|
|-0-------0---------------0-------0-------0---------------0--------|
|------------------------------------------------------------------|
|------------------------------------------------------------------|

  |               |               |               |                 
|------------------------------------------------------------------|
|-0----------------------------------------------------------------|
|------------------------------------------------------------------|
|------------------------------------------------------------------|


Created with TablEdit http://www.tabledit.com/


............................................................
  development and support by
dmitry ivanov