rock
 
|tablatures   |lyrics   |discussion forums   |more tabs @ XGuitar.com

Led Zeppelin tabs

The Rain Song bass tab

Date: Tue, 18 Jun 2002 22:25:23 +0300 (EEST)
From: =?ISO-8859-1?Q?jan_bj=F6rklund?= <jan.bjorklund@luukku.com>
Subject: l/led_zeppelin/the_rain_song.btab

l/led_zeppelin/The_rain_song.btab

TablEdited by Jan Bjorklund   <jani_bjorklund@yahoo.se>
You are welcome to request for tabs!
Fingering and positions as suggested by TablEdit, please use common sense.


TablEdited by Jan Bjorklund
Tuning : E A D G 	Time Signature: 4/4

  |               |               |               |                 
|-0----------------------------------------------------------------|
|------------------------------------------------------------------|
|------------------------------------------------------------------|
|------------------------------------------------------------------|

  |               |               |               |                 
|-0----------------------------------------------------------------|
|------------------------------------------------------------------|
|------------------------------------------------------------------|
|------------------------------------------------------------------|

  |               |               |               |                 
|-0-------------------------------------------------------0--------|
|------------------------------------------------------------------|
|------------------------------------------------------------------|
|------------------------------------------------------------------|

  |               |               |               |                 
|-----------------------------------------0-------0----------------|
|------------------------------------------------------------------|
|------------------------------------------------------------------|
|---------------------------------------------------------3--------|

  |               |               |               |                 
|---------------------------------------------------------0--------|
|------------------------------------------------------------------|
|------------------------------------------------------------------|
|------------------------------------------------------------------|

  |               |               |               |                 
|---------0---------------0---------------0---------------0--------|
|------------------------------------------------------------------|
|------------------------------------------------------------------|
|------------------------------------------------------------------|

  |               |               |               |                 
|---------8-------8------------------------------------------------|
|---------------------------------------------------------5--------|
|------------------------------------------------------------------|
|------------------------------------------------------------------|

  |               |               |               |                 
|---------0---------------0---------------0---------------0--------|
|------------------------------------------------------------------|
|------------------------------------------------------------------|
|------------------------------------------------------------------|

  |               |               |               |                 
|---------8--------------------------------------------------------|
|-------------------------------------------------5-------5--------|
|------------------------------------------------------------------|
|------------------------------------------------------------------|

  |               |               |               |                 
|------------------------------------------------------------------|
|------------------------------------------------------------------|
|------------------------------------------------------------------|
|------------------------------------------------------------------|

  |               |               |               |                 
||-----------------------------------------------------------------|
|*-----------------------------------------------------------------|
|*-----------------------------------------------------------------|
||-----------------------------------------------------------------|

  |               |               |               |                 
|-----------------------------------------------------------------||
|-----------------------------------------------------------------*|
|-----------------------------------------------------------------*|
|-----------------------------------------------------------------||

  |               |               |               |                 
|---------------------------------------------------------0--------|
|------------------------------------------------------------------|
|------------------------------------------------------------------|
|------------------------------------------------------------------|

  |               |               |               |                 
|---------0-------0------------------------------------------------|
|---------------------------------2-------0------------------------|
|------------------------------------------------------------------|
|---------------------------------------------------------3--------|

  |               |               |               |                 
|---------0---------------0---------------0---------------0--------|
|------------------------------------------------------------------|
|------------------------------------------------------------------|
|------------------------------------------------------------------|

  |               |               |               |                 
|---------0-------0------------------------------------------------|
|------------------------------------------------------------------|
|------------------------------------------------------------------|
|---------------------------------------------------------3--------|

  |               |               |               |                 
|---------0---------------0---------------0---------------0--------|
|------------------------------------------------------------------|
|------------------------------------------------------------------|
|------------------------------------------------------------------|

  |               |               |               |                 
|---------0-------0-------------------------------1-------0--------|
|------------------------------------------------------------------|
|------------------------------------------------------------------|
|------------------------------------------------------------------|

  |               |               |               |                 
|---------------------------------0-------0-------0-------0--------|
|-----------------------------0------------------------------------|
|------------------------------------------------------------------|
|------------------------------------------------------------------|

  |               |               |               |                 
|------------------------------------------------------------------|
|------------------------------------------------------------------|
|-------------------------------------------------3-------3--------|
|------------------------------------------------------------------|

  |               |               |               |                 
|------------------------------------------------------------------|
|------------------------------------------------------------------|
|---------3---------------3-------------------------------3--------|
|------------------------------------------------------------------|

  |               |               |               |                 
|-------------------------------------------------1-------0--------|
|------------------------------------------------------------------|
|---------3---------------3----------------------------------------|
|------------------------------------------------------------------|

  |               |               |               |                 
|---------------------------------0-------0---------------0--------|
|-----------------------------0------------------------------------|
|------------------------------------------------------------------|
|------------------------------------------------------------------|

  |               |               |               |                 
|------------------------------------------------------------------|
|------------------------------------------------------------------|
|-----------------------------------------------------3---3--------|
|------------------------------------------------------------------|

  |               |               |               |                 
|------------------------------------------------------------------|
|------------------------------------------------------------------|
|---------3---------------3---------------3---3---3---3---3--------|
|------------------------------------------------------------------|

  |               |               |               |                 
|-------------------------------------------------1-------0--------|
|------------------------------------------------------------------|
|---------3---------------3----------------------------------------|
|------------------------------------------------------------------|

  |               |               |               |                 
|---------------------------------------------------------0--------|
|------------------------------------------------------------------|
|------------------------------------------------------------------|
|------------------------------------------------------------------|

  |               |               |               |                 
|------------------------------------------------------------------|
|------------------------------------------------------------------|
|-------------------------------------------------3---3---3--------|
|------------------------------------------------------------------|

  |               |               |               |                 
|------------------------------------------------------------------|
|------------------------------------------------------------------|
|---------3---------------3---------------3-------3-------3--------|
|------------------------------------------------------------------|

  |               |               |               |                 
|---------------------------------------------------------0--------|
|------------------------------------------------------------------|
|---------3---------------3-------3-------3-------3----------------|
|------------------------------------------------------------------|

  |               |               |               |                 
|---------0-------0---------------0-----------------------0--------|
|-----------------------------------------1---0--------------------|
|------------------------------------------------------------------|
|-------------------------------------------------3----------------|

  |               |               |               |                 
|---------0-------0---------------0-----------------------0--------|
|-----------------------------------------2---0--------------------|
|------------------------------------------------------------------|
|-------------------------------------------------3----------------|

  |               |               |               |                 
|---------0-------0---------------0-----------------------0--------|
|-----------------------------------------2---0--------------------|
|------------------------------------------------------------------|
|-------------------------------------------------3----------------|

  |               |               |               |                 
|---------0-------0-------0---------------0-------0-------0--------|
|------------------------------------------------------------------|
|------------------------------------------------------------------|
|------------------------------------------------------------------|

  |               |               |               |                 
|-5-------------------------------5---------------5-------4--------|
|-----------------------------5-----------5------------------------|
|------------------------------------------------------------------|
|------------------------------------------------------------------|

  |               |               |               |                 
|---------4-----------------------------------------------4--------|
|-----------------4------------------------------------------------|
|-----------------------------2---2-------2-------2----------------|
|------------------------------------------------------------------|

  |               |               |               |                 
|-5-------------------------------5-----------------------7--------|
|-----------------------------------------5------------------------|
|-------------------------------------------------7----------------|
|------------------------------------------------------------------|

  |               |               |               |                 
|-------------5---7-----------7---5---5---7-------7---7---7---7----|
|-----7------------------------------------------------------------|
|------------------------------------------------------------------|
|------------------------------------------------------------------|

  |               |               |               |                 
|-5-------------------------------5---------------5-------4--------|
|-------------------------5---------------5------------------------|
|------------------------------------------------------------------|
|------------------------------------------------------------------|

  |               |               |               |                 
|-----------------4------------------------------------------------|
|---------------------4--------------------------------------------|
|-------------------------2---------------2------------------------|
|------------------------------------------------------------------|

  |               |               |               |                 
|-2----------------------------------------------------------------|
|------------------------------------------------------------------|
|------------------------------------------------------------------|
|------------------------------------------------------------------|

  |               |               |               |                 
|-2----------------------------------------------------------------|
|------------------------------------------------------------------|
|------------------------------------------------------------------|
|------------------------------------------------------------------|

  |               |               |               |                 
|------------------------------------------------------------------|
|------------------------------------------------------------------|
|------------------------------------------------------------------|
|------------------------------------------------------------------|

  |               |               |               |                 
|-0-------------------------------------------------------0--------|
|------------------------------------------------------------------|
|------------------------------------------------------------------|
|------------------------------------------------------------------|

  |               |               |               |                 
|---------------------------------9-------7-------9----------------|
|------------------------------------------------------------------|
|---------------------------------------------------------10-------|
|------------------------------------------------------------------|

  |               |               |               |                 
|---------------------------------------------------------0--------|
|-------------------------------------------------1----------------|
|------------------------------------------------------------------|
|------------------------------------------------------------------|

  |               |               |               |                 
|-----------------0-----------------------0-------0----------------|
|---------1--------------------------------------------------------|
|------------------------------------------------------------------|
|---------------------------------------------------------3--------|

  |               |               |               |                 
|------------------------------------------------------------------|
|-----------------------------------------2-------0----------------|
|------------------------------------------------------------------|
|---------------------------------------------------------3--------|

  |               |               |               |                 
|------------------------------------------------------------------|
|------------------------------------------------------------------|
|------------------------------------------------------------------|
|---------3---------------3---------------3---------------3--------|

  |               |               |               |                 
|------------------------------------------------------------------|
|-------------------------------------------------1----------------|
|------------------------------------------------------------------|
|---------3-------3---------------------------------------3--------|

  |               |               |               |                 
|------------------------------------------------------------------|
|------------------------------------------------------------------|
|------------------------------------------------------------------|
|---------3---------------3---------------3---------------3--------|

  |               |               |               |                 
|------------------------------------------------------------------|
|------------------------------------------------------------------|
|------------------------------------------------------------------|
|---------3-------3---------------------------------------3--------|

  |               |               |               |                 
|---------------------------------0-------0---------------0--------|
|-----------------------------0------------------------------------|
|------------------------------------------------------------------|
|------------------------------------------------------------------|

  |               |               |               |                 
|---------------------------------7--------------------------------|
|-----------------------------------------5------------------------|
|-------------------------------------------------5---5------------|
|---------------------------------------------------------8--------|

  |               |               |               |                 
|------------------------------------------------------------------|
|------------------------------------------------------------------|
|---------3---------------3---------------3---3---3-------3--------|
|------------------------------------------------------------------|

  |               |               |               |                 
|------------------------------------------------------------------|
|------------------------------------------------------------------|
|---------3---------------3----------------------------------------|
|-------------------------------------------------4-------3--------|

  |               |               |               |                 
|-------------------------------------0----------------------------|
|---------------------0--------------------------------------------|
|------------------------------------------------------------------|
|------------------------------------------------------------------|

  |               |               |               |                 
|---------------------------------7--------------------------------|
|------------------------------------------------------------------|
|-------------------------------------------------5----------------|
|-----------------------------------------------------8---8--------|

  |               |               |               |                 
|------------------------------------------------------------------|
|------------------------------------------------------------------|
|---------3---------------3-------3-------3---------------3--------|
|-------------------------------------------------3----------------|

  |               |               |               |                 
|------------------------------------------------------------------|
|------------------------------------------------------------------|
|---------3---------------3---------------3------------------------|
|-------------------------------------------------4-------3--------|

  |               |               |               |                 
|---------------------------------0-------0-------0-------0--------|
|-----------------------------0-------3---------------3------------|
|------------------------------------------------------------------|
|------------------------------------------------------------------|

  |               |               |               |                 
|-----------------3-------0-------0-------0-------0----------------|
|---------------------3-----------------------3-------0------------|
|---------------------------------------------------------3--------|
|------------------------------------------------------------------|

  |               |               |               |                 
|------------------------------------------------------------------|
|------------------------------------------------------------------|
|---------3---------------3---------------3---------------3--------|
|-------------------------------------------------3----------------|

  |               |               |               |                 
|------------------------------------------------------------------|
|------------------------------------------------------------------|
|---------3---3---3---3---3---------------3-------3----------------|
|---------------------------------------------------------3--------|

  |               |               |               |                 
|---------0---0---0---0-----------0--------------------------------|
|-----------------------------------------3---2---0---2------------|
|------------------------------------------------------------------|
|---------------------------------------------------------3--------|

  |               |               |               |                 
|---------------------------------0--------------------------------|
|-----------------------------------------0------------------------|
|-------------------------------------------------4-------3--------|
|------------------------------------------------------------------|

  |               |               |               |                 
|------------------------------------------------------------------|
|-------------------------------------------------0---2------------|
|---------3---------------3-------3-------3---------------3--------|
|------------------------------------------------------------------|

  |               |               |               |                 
|------------------------------------------------------------------|
|------------------------------------------------------------------|
|---------3---------------3-------3-------3-------3----------------|
|---------------------------------------------------------3--------|

  |               |               |               |                 
|------------------------------------------------------------------|
|-----------------------------------------2---0---2---0------------|
|------------------------------------------------------------------|
|---------3-------3---------------------------------------3--------|

  |               |               |               |                 
|---------------------------------0---0-------0---0----------------|
|------------------------------------------------------------------|
|------------------------------------------------------------------|
|---------3-------3---------------------------------------3--------|

  |               |               |               |                 
|---------------------------------0-----------0---0----------------|
|------------------------------------------------------------------|
|------------------------------------------------------------------|
|---------------------------------------------------------3--------|

  |               |               |               |                 
|---------------------9-------7---7--------------------------------|
|-----------------------------------------9-------7----------------|
|-----------------------------------------------------7------------|
|---------------------------------------------------------10-------|

  |               |               |               |                 
|------------------------------------------------------------------|
|------------------------------------------------------------------|
|-3-------------------------------3---------------3-------2--------|
|-----------------------------------------3-----------3------------|

  |               |               |               |                 
|------------------------------------------------------------------|
|------------------------------------------------------------------|
|-------------------------2---2---2---------------2-------0--------|
|-----------------------------------------2------------------------|

  |               |               |               |                 
|------------------------------------------------------------------|
|------------------------------------------------------------------|
|-0----------------------------------------------------------------|
|------------------------------------------------------------------|

  |               |               |               |                 
|------------------------------------------------------------------|
|------------------------------------------------------------------|
|------------------------------------------------------------------|
|------------------------------------------------------------------|

  |               |               |               |                 
|---------------------------------0---------------0-------0--------|
|-----------------------------0-----------0-----------0------------|
|------------------------------------------------------------------|
|-3---------------3------------------------------------------------|

  |               |               |               |                 
|---------------------------------0---------------0----------------|
|-----------------------------------------------------2---0---0----|
|------------------------------------------------------------------|
|------------------------------------------------------------------|

  |               |               |               |                 
|------------------------------------------------------------------|
|------------------------------------------------------------------|
|-3---------------3---------------3-------2-------0----------------|
|-----------------------------3---------------------------3--------|

  |               |               |               |                 
|---------4---4---4---2--------------------------------------------|
|-------------------------5-------2--------------------------------|
|-------------------------------------5-------5---2-------2--------|
|-----------------------------------------------------5-------5----|

  |               |               |               |                 
|-----------------12----------12--12------9------------------------|
|-------------------------------------------------9----------------|
|-----------------------------------------------------12--10-------|
|-3----------------------------------------------------------------|

  |               |               |               |                 
|---------0-------0---0---------------------------0----------------|
|-------------------------3-------3---3---3---3-----------2---0----|
|------------------------------------------------------------------|
|------------------------------------------------------------------|

  |               |               |               |                 
|-------------------------9---7---9--------------------------------|
|-----------------------------------------10------7---7------------|
|---------------------------------------------------------10-------|
|-8----------------------------------------------------------------|

  |               |               |               |                 
|-----0-----------0------------------------------------------------|
|---------2-----------0-------2---0--------------------------------|
|-----------------------------------------3-------2---0------------|
|---------------------------------------------------------3---0----|

  |               |               |               |                 
|-----------------------------------------12--9---12--9---12-------|
|------------------------------------------------------------------|
|-----------------10-----------------------------------------------|
|-3----------------------------------------------------------------|

  |               |               |               |                 
|------------------------------------------------------------------|
|-------------------------------------------------------------9----|
|-----------------10----------------------------------10--12-------|
|-------------------------13--------------13------13---------------|

  |               |               |               |                 
|-5---------------5-------3---------------3------------------------|
|---------------------------------5---------------5----------------|
|-----------------------------------------------------5------------|
|---------------------------------------------------------3--------|

  |               |               |               |                 
|-------------------------4----------------------------------------|
|---------5-------5-----------5---2---------------------------2----|
|-------------5-------5---------------5---2-----------2---5--------|
|---------------------------------------------5---3----------------|

  |               |               |               |                 
|-----------------12----------12--12------12------12------10-------|
|------------------------------------------------------------------|
|-10---------------------------------------------------------------|
|------------------------------------------------------------------|

  |               |               |               |                 
|------------------------------------------------------------------|
|------------------------------------------------------------------|
|---------10------8-------8-------8-------8-------8-------7--------|
|-------------------------------------------------------------10---|

  |               |               |               |                 
|------------------------------------------------------------------|
|------------------------------------------------------------------|
|-3---------------3-----------3---3-------2-------0----------------|
|---------------------------------------------------------3--------|

  |               |               |               |                 
|------------------------------------------------------------------|
|------------------------------------------------------------------|
|------------------------------------------------------------------|
|-------------------------------------------------4---3------------|

  |               |               |               |                 
|---------------------------------0-------0------------------------|
|-----------------------------0------------------------------------|
|------------------------------------------------------------------|
|------------------------------------------------------------------|

  |               |               |               |                 
|---------------------------------0-------0---0--------------------|
|-------------------------------------------------0----------------|
|-----------------------------------------------------3---3--------|
|-3----------------------------------------------------------------|

  |               |               |               |                 
|-----------------------------------------5---5-------5------------|
|-------------------------------------------------5----------------|
|---------3---------------3-------------------------------3--------|
|------------------------------------------------------------------|

  |               |               |               |                 
|------------------------------------------------------------------|
|------------------------------------------------------------------|
|---------3---------------3----------------------------------------|
|-------------------------------------------------4-------3--------|

  |               |               |               |                 
|-------------------------------------------------7----------------|
|-----------------------------5---5-------5---------------5--------|
|-----------------5---5--------------------------------------------|
|---------7--------------------------------------------------------|

  |               |               |               |                 
|-------------------------------------------------7-------5--------|
|------------------------------------------------------------------|
|------------------------------------------------------------------|
|-3---------------------------------------8------------------------|

  |               |               |               |                 
|---------5---------------5-------3---2-------2--------------------|
|-------------------------------------------------5----------------|
|-----------------------------------------------------5---3--------|
|------------------------------------------------------------------|

  |               |               |               |                 
|---------------------------------------------------------0--------|
|------------------------------------------------------------------|
|---------3---------------3-------3---------------3----------------|
|------------------------------------------------------------------|

  |               |               |               |                 
|-------------------------0-------0---------------0-------0--------|
|---------------------0--------------------------------------------|
|------------------------------------------------------------------|
|------------------------------------------------------------------|

  |               |               |               |                 
|------------------------------------------------------------------|
|---------------------------------0-------0---0---0---0------------|
|---------------------------------------------------------3--------|
|------------------------------------------------------------------|

  |               |               |               |                 
|------------------------------------------------------------------|
|------------------------------------------------------------------|
|---------3---------------3---3---3---3---3---3---3-------3--------|
|------------------------------------------------------------------|

  |               |               |               |                 
|---------------------------------------------------------0--------|
|------------------------------------------------------------------|
|---------3-------3-----------3---3-------3---3---3---3------------|
|------------------------------------------------------------------|

  |               |               |               |                 
|---------------------------------------------------------0--------|
|-------------------------0-------0-------0-------0----------------|
|------------------------------------------------------------------|
|---------3-------3------------------------------------------------|

  |               |               |               |                 
|---------0-------0------------------------------------------------|
|-----------------------------0---------------0--------------------|
|---------------------------------3---------------3---3---3--------|
|------------------------------------------------------------------|

  |               |               |               |                 
|---------------------------------5---5---5---5---5---5---5---5----|
|------------------------------------------------------------------|
|---------3---------------3----------------------------------------|
|------------------------------------------------------------------|

  |               |               |               |                 
|-5----------------------------------------------------------------|
|---------------------------------------------------------5--------|
|---------3---------------3-----------------------5----------------|
|------------------------------------------------------------------|

  |               |               |               |                 
|---------0-------0-----------------------0-------0-------0--------|
|------------------------------------------------------------------|
|------------------------------------------------------------------|
|------------------------------------------------------------------|

  |               |               |               |                 
|---------0-------0---------------0---0---0---0---0-------0--------|
|------------------------------------------------------------------|
|------------------------------------------------------------------|
|------------------------------------------------------------------|

  |               |               |               |                 
|---------0-------0-------0---0---0-------0---0--------------------|
|-------------------------------------------------0----------------|
|-----------------------------------------------------3------------|
|---------------------------------------------------------3--------|

  |               |               |               |                 
|------------------------------------------------------------------|
|------------------------------------------------------------------|
|-------------------------------------------------0-------2--------|
|---------3---------------3---------------3------------------------|

  |               |               |               |                 
|---------------------------------------------0--------------------|
|---------------------------------2--------------------------------|
|-3---------------------------3-----------3-----------3---2--------|
|------------------------------------------------------------------|

  |               |               |               |                 
|---------4-------4------------------------------------------------|
|---------------------------------4--------------------------------|
|-----------------------------------------5-------2----------------|
|------------------------------------------------------------------|

  |               |               |               |                 
|------------------------------------------------------------------|
|------------------------------------------------------------------|
|-0----------------------------------------------------------------|
|------------------------------------------------------------------|

  |               |               |               |                 
|------------------------------------------------------------------|
|------------------------------------------------------------------|
|------------------------------------------------------------------|
|------------------------------------------------------------------|

  |               |               |               |                 
|-0----------------------------------------------------------------|
|------------------------------------------------------------------|
|------------------------------------------------------------------|
|------------------------------------------------------------------|

  |               |               |               |                 
|------------------------------------------------------------------|
|------------------------------------------------------------------|
|------------------------------------------------------------------|
|------------------------------------------------------------------|

  |               |               |               |                 
|------------------------------------------------------------------|
|------------------------------------------------------------------|
|-3-------------------------------------------------------2--------|
|------------------------------------------------------------------|

  |               |               |               |                 
|------------------------------------------------------------------|
|---------------------------------------------------------0--------|
|---------------------------------2-------3------------------------|
|------------------------------------------------------------------|

  |               |               |               |                 
|------------------------------------------------------------------|
|-----------------------------------------1---------------3--------|
|------------------------------------------------------------------|
|------------------------------------------------------------------|

  |               |               |               |                 
|------------------------------------------------------------------|
|-----------------3------------------------------------------------|
|------------------------------------------------------------------|
|------------------------------------------------------------------|

 


Created with TablEdit http://www.tabledit.com/


............................................................
  development and support by
dmitry ivanov