rock
 
|tablatures   |lyrics   |discussion forums   |more tabs @ XGuitar.com

Led Zeppelin tabs

The Lemon Song bass tab


The Lemon Song - Led Zeppelin
Bassist- John Paul Jones
=======================================================
This tab could not be possible without the help of my teacher Alex
Any comments can be sent to me, Dave Reisner (pengwon@juno.com).

All I have of this song is the beginning of the solo.
On the CD, if you have it, you can follow along starting
at 2:59. To get the rhythm, you just have to listen to it several
times. Enjoy!!!

     E7
*---||----------------------|-----9--7--7-----------7--|-----------------------------|
|4:-||-----6--7--8--9-------|--------------7--8--9-----|--------6--6--7--7--8--9--0--|
|4:-||--7--------------7----|--7-----------------------|--7--7-----------------------|
*---||-------------------7--|--------------------------|-----------------------------|

					    A7
*-------9-8-7-----------------------------|-------------------------------|
|4:--------------0-9-0-7-6----------------|------------------------5--6---|
|4:---------------------------____--7-----|------4----5---6-0-6-7---------|
*--------------------------7--6--7-----6--|-5-5-----5---5-----------------|

				E7
*-----------------------------------|------------------------|--------------------9-------|
|4:-----7--------------------7------|----6-6-6--7-7-7--8-8-8-|-9----------------9---7---8-|
|4:--------7----7--------4----5--6--|-7----------------------|----7--5-0-7-7-7---------7--|
*-------------5---5--5--------------|------------------------|----------------------------|

  B7			   A7				 E7
*-------------11--------------|-----------------------------|---9-7-------------|
|4:-----9-9-9----9------9---9-|-7-----------4-5-6-7---------|-------9-7-5-------|
|4:----------------12-9---9---|---0-4-5-6-7---------3-4-5-6-|-7-----------7-5---|
*-----------------------------|-----------------------------|-----------------7-|


*-------------------------------||
|4:-----------------------------||
|4:-----7-7-5-------------5-6-7-||
*-------------7-5-3-5-6-7-------||


	Notes:
* I have denoted the chords in case you want to adlib
___
x-y  hammer-on




-------------------||
|4:-----------------------------||
|4:-----7-7-5-------------5-6-7-||
*-------------7-5-3-5-6-7-------||

	Notes:
* I have denoted the chords in case you want to adlib
___
x-y  hammer-on


  development and support by
dmitry ivanov