rock
 
|tablatures   |lyrics   |discussion forums   |more tabs @ XGuitar.com

Led Zeppelin tabs

Thats The Way bass tab

This is my first tab.  I hope it's correct.



--------------------------------------------
--------------------------------------------
--------------------------2--------3------
--3-----x-----5-----x--------x--------x-

-------------------------------------------
-------------------------------------------
--5--------5--------5--------x-------5-
------------------------------------------

------------------------------------------  x3
------2-----5---------------------------
-3--------------3----5-----------------
-----------------------------3--------3-

------------------------------------------
------------------------------------------
-5-------5--------5--------5---x----3-
------------------------------------------

------------------------------------------
------------------------------------------
-5-------5--------5--------5--------3-
------------------------------------------

------------------------------------------
------------------------------------------
---------------------------2-------3-----
-3--------x-------5---------------------

------------------------------------------
------------------------------------------
-5-------5---------5--------x----------
------------------------------------------

------------------------------------------  x3
---------2------5-----------------------
-3-------------------3-5---------------
-----------------------------3-----5----

------------------------------------------
------------------------------------------
-5-----------5-----------5---------7-/-
------------------------------------------

-----------------------------------------
-----7-----7-----------------------7--
9-------------9-\\-5------x-/-9-------
----------------------------------------

----------------------------------------
----------------------------------------
-------------------------2--------3---
-3---------5---------------------------

----------------------------------------
----------------------------------------
-5-------5---5---5---5---5-----0--
---------------------------------------

------------------------------------------  x3
---------2------5-----------------------
-3-------------------3-5---------------
-----------------------------3-----5----

-----------------------------------------
----------------------------7---7----x-
5-----x---5---5---5---9---9---9----
-----------------------------------------

-----7-----7----11---9---7---9---x
-9-----9-----9/-----------------------
----------------------------------------
----------------------------------------

----------------------------------------
----------------------------------------
-------------------------2--------3---
-3---------5---------------------------
  development and support by
dmitry ivanov