rock
 
|tablatures   |lyrics   |discussion forums   |more tabs @ XGuitar.com

Led Zeppelin tabs

Ten Years Gone bass tab

From: Ryan William Klein 

Here is the BTab to "Ten Years Gone"

By Led Zeppelin

I hope its remotely close to correct.



	 E    E     S      S    W+

-------------------------------------

-------------------------------------

-------------------------------------

------5----5-----3------5----1-------





-------------------------------------

-------------------------------------

----------------9-----9-----77777777-

-----5----5--------------------------





-------------------------------------

5---5---5--5--3-------------0--3--2--

-----------------------0--3----------

------------------0--1---------------



  Series of A's    S HS  E

-------------------------------------

-------------------------7-----------

-------------------4-7---------------

---55555555555-----------------------





  Series of A's    S HS  E

-------------------------------------

-------------------------7-----------

-------------------4-7---------------

---55555555555-----------------------





	 E    E     S      S    W+

-------------------------------------

-------------------------------------

-------------------------------------

------5----5-----3------5----1-------









Then, As it was, then again it will be...

	 E    E     S      S    W+

-------------------------------------

-------------------------------------

-------------------------------------

------5----5-----3------5----1-------







	 E    E     S      S    W+

-------------------------------------

-------------------------------------

-------------------------------------

------5----5-----3------5----1-------







-------------------------------------

-------------------------------------

----------------9-----9-----77777777-

-----5----5--------------------------





-------------------------------------

5---5---5--5--3-------------0--3--2--

-----------------------0--3----------

------------------0--1---------------







Blind skies of fortune........

  Series of A's    S HS  E

-------------------------------------

-------------------------7-----------

-------------------4-7---------------

---55555555555-----------------------







  Series of A's    S HS  E

-------------------------------------

-------------------------7-----------

-------------------4-7---------------

---55555555555-----------------------







  Series of A's    S HS  E

-------------------------------------

-------------------------7-----------

-------------------4-7---------------

---55555555555-----------------------





This general pattern continues with

a combination of the different above

measures until the guitar solo





---------------5-------5--------------

-5--5--55--55-----5-------------------

--------------------3-----------5--6--

--------------------------3--3--------





-------------------------------------

-------------------------------------

--777777777777--7------5555555555----



--------------7----3-----------------









-------------------------------------

--2--4--5--------5--5----------2222222222



-----------5-5-5-------5-----2-------

--------------------------2-----------



Since I am not too good at figuring this

stuff out, this is the basic idea duing the

guitar solo.  After the solo, the bass line

repeats (more or less) to the beginning.

I am sorry if this is not all that accurate,

but I am just trying to get a start on the song.

I hope I help somebody out!!



Ryan Klein

rklein@ux4.cso.uiuc.edu


HS = Hammer on to Sixteenth Note
E = Eigth Note
W+ = Extended Whole note

-00220|0-------------5-|(5)---5-----------------------5-|
E|----------3-----|-33-3---33------|--------------------------------|
                                            "Do you ever really need somebody?"

G|----------799--9977-7-----------|----------799--9977-7-----------|
D|----------577997755-5--5555-----|----------577997755-5--5555-----|
A|(5)---5-----------------------5-|(5)---5-----------------------0-|
E|--------------------------------|--------------------------------|

G|----------2-----|----------------|--------7-77----|----------------|
D|--------2---2-0-|(0)---0-7-0---5-|------55----5---|----------------|
A|(0)---0------4--|----------------|-------------53-|--3---------3---|
E|----------------|----------------|----------------|--------------34|

                                                     2/4 time 4/4 time
G|----------------|----------------|----------------|--------|---5-910-9-|
D|------------7---|------797-----5-|------55----5---|--------|-57--------|
A|--------7-7---5-|--5-5-----5-5---|--------5-----3-|(3)-----|5----------|
E|5---5-----------|----------------|----------------|--------|-----------|

         repeat
G|------------------------------|----------------|----------------|----------------|
D|7-797-9-9-9107--7-797-7-7---7-|----------------|----------------|----------------|
A|---------------------------7--|----------------|----------------|----------------|
E|--------------------------9---|--------5-5-351-|(1)-------------|--------5-5-351-|


G|----------------|----------------|---------------------------|
D|----------------|----------------|---------------------------|
A|----------------|----------------|---/9-99-97-777-775-555-553|
E|(1)-------------|--------5-5-351-|5-5------------------------|

  4/4 time
G|----------------| ----------------|----------------|----------------|---------------- |
D|------3-2-------|o----------------|------7---------|----------------|------7---------o|
A|(3)--0----------|o----------------|-----7----------|----------------|-----7----------o|
E|----------5-5-5-| --5-555---5-555-|--5-9-----5-555-|--5-555---5-555-|--5-9-----5-555- |
                                                                        Repeat and fade

tabbed by Achilles (blue_sincere@hotmail.com)
  development and support by
dmitry ivanov