rock
 
|tablatures   |lyrics   |discussion forums   |more tabs @ XGuitar.com

Led Zeppelin tabs

Tangerine bass tab

Tangerine - Led Zeppelin

listen for timing
bass enters at 0:56 for chorus

  chorus
G|------------------------------11----------------------------------------------------
D|--4---4-----------------4---11---------------------------------------4--4-4-4-4-4-4-
A|-------4--2-2----2-2-4--------------------2--4\------4-4-2-2---2--4-----------------
E|9\--------------2---------------9-9-7-7---------2-----------------------------------

-----------------|
-----------------|
4-4---4-----4----|
----24----24-----|

  bass reenters at 1:41 for solo
  looks like it needs to be in drop D tuning at this point
G|----------------------------------------------------------------------------------------
D|---------------------------------------------------------2-1---1------------------------
A|------2-222------------4--4--4-4-----------------------24---22----1-----------2-2-------
D|6---46------6-4---4-24------------6\2--2--222--241-1-1--------------1-112-2-46----3-3-3-

-------------------|
-------------------|
---4-4---4-----4---|
333----5-----5-----|

For the second solo, improv around the C# (4th fret) on the A string 
and end the solo on the G# (6th fret) on the D string.

Tabbed by Achilles (blue_sincere@hotmail.com)
  development and support by
dmitry ivanov