rock
 
|tablatures   |lyrics   |discussion forums   |more tabs @ XGuitar.com

Led Zeppelin tabs

South Bound Saurez bass tab

SOUTH BOUND SAUREZ Bass Tab
--------------------

Transcribed by Jeff Strawman, jstraw at led dash zeppelin dot org
http://www.led-zeppelin.org/

Standard Tuning

G|----------------|----------------|----------------|----------------|
D|----------------|----------------|----------------|----------------|
A|----------------|----------------|0000000000000000|0000000000000012|
E|----------------|----------------|----------------|----------------|

G|----------------|----------------|----------------|----------------|
D|----------------|----------------|----------------|----------------|
A|3333333333333333|3333333333333321|0000000000000000|0000000000000012|
E|----------------|----------------|----------------|----------------|

G|----------------|----------------|----------------|----------------|
D|----------------|----------------|----------------|-------------012|
A|3333333333333333|3333333333333321|0000000000000000|0000000000000---|
E|----------------|----------------|----------------|----------------|

G|----------------|----------------|----------------|----------------|
D|333333333333333-|-------------012|3333333333333333|-------------012|
A|---------------3|3333333333333---|----------------|3333333333333---|
E|----------------|----------------|----------------|----------------|

G|----------------|----------------|----------------|----------------|
D|3333333333333333|----------------|----------------|----------------|
A|----------------|3333333333333332|1---------------|--------------12|
E|----------------|----------------|----------------|--1-------------|

G|----------------|----------------|----------------|----------------|
D|----------------|----------------|----------------|----------------|
A|3-33333333333333|3333333333333321|0000000000000000|0000000000000012|
E|----------------|----------------|----------------|----------------|

G|----------------|----------------|----------------|----------------|
D|----------------|----------------|----------------|---------------3|
A|3333333333333333|3333333333333321|0000000000000000|000000000000000-|
E|----------------|----------------|----------------|----------------|

G|----------------|----------------|----------------|----------------|
D|-333333333333333|-------------123|-33333333333333-|-------------123|
A|----------------|3333333333333---|----------------|3333333333333---|
E|----------------|----------------|----------------|----------------|

G|----------------|----------------|----------------|----------------|
D|-333333333333333|----------------|----------------|----------------|
A|----------------|3-33333333333322|1---------------|----------------|
E|----------------|----------------|----------------|--1-------------|

G|----------------|----------------|----------------|----------------|
D|----------------|----------------|----------------|----------------|
A|3-3333333333333-|3333333333333321|0000000000000000|0000000000000012|
E|----------------|----------------|----------------|----------------|

G|----------------|----------------|----------------|----------------|
D|----------------|----------------|----------------|----------------|
A|3333333333333333|3333333333333210|-000000000000000|00000000000000--|
E|----------------|----------------|----------------|--------------32|

G|----------------|----------------|----------------|----------------|
D|----------------|----------------|----------------|----------------|
A|---------------0|3333333333333---|--------------02|3333333333333---|
E|111111111111113-|-------------321|--111111111111--|-------------321|

G|----------------|----------------|----------------|----------------|
D|----------------|----------------|----------------|----------------|
A|--------------02|3333333333333322|1---------------|--------------12|
E|--111111111111--|----------------|----------------|--1-------------|

G|----------------|----------------|----------------|----------------|
D|----------------|----------------|----------------|----------------|
A|3-33333333333333|3333333333333210|0000000000000000|0000000000000012|
E|----------------|----------------|----------------|----------------|

G|----------------|----------------|----------------|----------------|
D|----------------|----------------|----------------|-------------0--|
A|3333333333333333|3333333333333321|0000000000000000|0000000000000-3-|
E|----------------|----------------|----------------|---------------1|

G|----------------|----------------|----------------|----------------|
D|----------------|----------------|----------------|----------------|
A|--------------02|333333-3-3333---|--------------02|333333-3-3333---|
E|--111111111111--|-------------321|--111111111111--|-------------321|

G|----------------|----------------|----------------|----------------|
D|----------------|----------------|----------------|----------------|
A|--------------02|3333333333333322|1---------------|--------------12|
E|--111111111111--|----------------|----------------|--1-------------|

G|----------------|----------------|----------------|----------------|
D|----------------|------------5---|----------------|----------------|
A|3-33333333333333|333333333333-032|1---------------|--------------12|
E|----------------|----------------|----------------|--1-------------|

G|----------------|----------------|----------------|----------------|
D|----------------|------------32--|----------------|----------------|
A|3-33333333333333|333333333333--3-|1---------------|--------------12|
E|----------------|----------------|----------------|--1-------------|

G|----------------|----------------|----------------|----------------|
D|----------------|----------------|----------------|----------------|
A|3-33333333333333|3333333333333312|3333333333333333|3333333333333333|
E|----------------|----------------|----------------|----------------|

G|----------------|----------------|----------------|----------------|
D|----------------|----------------|----------------|----------------|
A|3333333333333333|3333333333333322|1---------------|--------------12|
E|----------------|----------------|---------------1|11-111----------|

G|----------------|----------------|----------------|----------------|
D|----------------|----------------|----------------|----------------|
A|3-33333333333333|333333333-----12|3333333333333012|3333333333333012|
E|----------------|---------00-3---|----------------|----------------|

G|----------------|----------------|----------------|----------------|
D|----------------|--------555532--|----------------|----------------|
A|3333333333333012|3-333333------12|3-33333333333012|3-33333333333333|
E|----------------|----------------|----------------|----------------|

G|----------------|----------------|----------------|----------------|
D|----------------|--------------1-|----------------|----------------|
A|3-33333333333012|3---------1-33-3|3333333333333333|3333333333333012|
E|----------------|-0001-2-33------|----------------|----------------|

G|----------------|----------------|----------------|
D|----------------|----------------|----------------|
A|3-33333333333333|333333333---3333|3333333333333012|
E|----------------|---------333----|----------------|
  development and support by
dmitry ivanov