rock
 
|tablatures   |lyrics   |discussion forums   |more tabs @ XGuitar.com

Led Zeppelin tabs

Sick Again guitar tab

SICK AGAIN Guitar Tab

 Intro:
 - ---------------------------------------------------------------
 - -----------------------------2------------------------------2--
 - -----------------------------2------------------------------2--
 - -----2-----2-----------------2------------2----2------------2--
 - -----2-----2-----------------0------------2----2------------0--
 - -----0-----0----3----3--------------------0----0---3--3-------

 - --------------------------------------------------------
 - --9----9----7---------------------0--------------0-----
 - --9----9----7---------------------6--------------5-----
 - --9----9----7---------------------7--------------7-----
 - --7----7----7---------------------7--------------7-----
 - --0----0----0---------------------0--------------0-----

 Main riff 1:
 - ---------------------------------------------------
 - ---------------------------------------------------
 - ---------------------------------------------------
 - -----9------------11----11-----9----11-----9-------
 - -----7-------------7-----7-----7-----7-----7-------
 - ---------------------------------------------------
 - ---------------------------------------------------------
 - ---------------------------------------------------------
 - ---------------------------------------------------------
 - ----9----------11-----11-----9---11----9-----9-----9---
 - ----7-----------7------7-----7----7----7-----7-----7---
 - ----------------------------------------------------------

 Riff 2:
 - ------------------------------------------------
 - ------------------------------------------------
 - ---------------------5-----7------9-----9------
 - ---------------------5-----7------9-----9------
 - ----5----4------2----3-----5------7-----7------
 - ----3----2------0-------------------------------

 Variation of main riff 1:
 - ---------------------------------------------------
 - --------------------------------------------------
 - -----------12----11-----9------11--------9------
 - ---9-------12----11-----9------11--------9-------
 - ---7--------7-----7------7------7---------7--------
 - -----------------------------------------------------

 - ----------------------------------------------------------
 - ---------12-----11---------------------------------------
 - ---------12-----11-----9------11----9-----9-----9-------
 - --9------7-------7-----7-------7----7-----7-----7--------
 - --7--------------------------------------------------------

 Fill type thing:
 - ------------------------------------------
 - ----------------3------3---2-------2----
 - ----------------2------2---2-------2----
 - ---2------2-----4------4---2---2---2----
 - ---0------0--------------------0---0----
 - ------------------------------------------

 Riff 3:
 - ----------------------------------------------------------
 - ----------------------------------------------------------
 - ---6-s-4-s-6-s-4-----------------------------------------
 - -------------------4---2---4-----2-----------------------
 - -------------------------------------------------3--4--0--

 Chorus?:
 - ---------------------------------------------------------
 - ----------4-----------4------------4-----------4-------
 - -------4-----------4-------------4------------4--------
 4---4------------4------------4-------------4----------
 2-------------0------------------------------------------
 - ----------------------------4------------2--------------

  development and support by
dmitry ivanov