rock
 
|tablatures   |lyrics   |discussion forums   |more tabs @ XGuitar.com

Led Zeppelin tabs

Royal Orleans bass tab

ROYAL ORLEANS

As recorded by Led Zepplin
(From the 1976 Album PRESENCE)

Transcribed by Omnicurse
E-mail any questions to Omnicurse@hotmail.com



 Intro
  Moderate Rock Q=111
  N.C.(A)
 4/4
  Gtr I
|-----------------------------|
|-----------------------------|
|-------0-(0)-------0-------0-|
|-0-2-3-------0-2-3---0-2-3---|


|-------------------|-----------------------------|
|-4s5-4-2-----------|-----------------------------|
|---------3-4-0-----|-------0-(0)-------0-------0-|
|-------------------|-0-2-3-------0-2-3---0-2-3---|


                     First Verse
                        E           D          E         D
|-------------------|----------------------|-------------------|
|-4s5-4-2-----------|----------------------|-------------------|
|---------3-4-0-----|-7s9-7-(7)-7-7-5----5-|-7s9-7-7-7-7-5-----|
|-------------------|-----0-(0)------------|-------------------|


    E           D          E           D          E           D
|----------------------|----------------------|----------------------|
|----------------------|----------------------|----------------------|
|-7s9-9-7-7-7-7-5----7-|-7s9-7-(7)-7---5----7-|-7s9-7-(7)-7-7-5----5-|
|-------0--------------|-------------0--------|-----0-(0)------------|


    E         D         E           D          E         D
|-------------------|----------------------|-------------------|
|-------------------|----------------------|-------------------|
|-7s9-7-7-7-7-5-----|-7s9-7-(7)-7-7-5----5-|-7s9-7-7-7-7-5-----|
|-------------------|-----0-(0)------------|-------------------|


 Pre-Verse
  N.C.(A)
|-----------------------------|-------------------|
|-----------------------------|-4s5-4-2-----------|
|-------0-(0)-------0-------0-|---------3-4-0-----|
|-0-2-3-------0-2-3---0-2-3---|-------------------|


|------------------------------|
|------------------------------|
|-------0-(0)-------0-------0--|
|-0-2-3-------0-2-3---0-2-3----|


                     Second Verse
                        E         D          E           D
|-------------------|--------------------|---------------------|
|-4s5-4-2-----------|--------------------|---------------------|
|---------3-4-0-----|-7s9---7-7-7-5----7-|-7s9-7-(7)-7-7-5-----|
|-------------------|-----0--------------|---------------------|


    E         D          E        D          E         D
|--------------------|-------------------|---------------------|
|--------------------|-------------------|---------------------|
|-7s9---7-7-7-5----7-|-7s9-7--7-7-5----7-|-7s9-7-7-7-7-5----7--|
|-----0--------------|-------------------|-----0---------------|


    E         D          E        D          E         D
|--------------------|-------------------|-------------------|
|--------------------|-------------------|-------------------|
|-7s9-7-7-7-7-5----7-|-7s9-7--7-7-5----7-|-7s9-7-7-7-7-5-----|
|--------------------|-----0-------------|-------------------|


   Bridge
    N.C.(A)
||------------------------------|
||o-----------------------------|
||o-------0-(0)-------0-------0-|
||--0-2-3-------0-2-3---0-2-3---|


|-------------------|-----------------------------|
|-4s5-4-2-----------|-----------------------------|
|---------3-4-0-----|-------0-(0)-------0-------0-|
|-------------------|-0-2-3-------0-2-3---0-2-3---|


                       Third Verse
                          E         D          E           D
|--------------------||--------------------|---------------------|
|-4s5-4-2-----------o||--------------------|---------------------|
|---------3-4-0-----o||-7s9---7-7-7-5----7-|-7s9-7-(7)-7-7-5-----|
|--------------------||-----0--------------|---------------------|


    E         D          E         D         E         D
|--------------------|-------------------|---------------------|
|--------------------|-------------------|---------------------|
|-7s9---7-7-7-5----7-|-7s9-7-7-7-7-5-----|-7s9---7-7-7-5----7--|
|-----0--------------|-------------------|-----0---------------|


    E           D         E         D          E         D
|---------------------|--------------------|-------------------------------||
|---------------------|--------------------|------------------------4-4-4--||
|-7s9-7-(7)-7-7-5-----|-7s9---7-7-7-5----7-|-7s9-7-7-7-7-5--7-5-6-7--------||
|---------------------|-----0--------------|-------------------------------||


 Guitar Solo
  F#        E         F#        E          F#        E
|-----------------|--------------------|---------------------|
|-4---4-4-4-2-----|-4s6---4-4-4-2----4-|-4s6---4-4-4-2----4--|
|-----------------|--------------------|---------------------|
|---2-------------|-----2--------------|-----2---------------|


    F#        E          F#        E          F#          E
|--------------------|--------------------|---------------------|
|-4s6-4-4----------4-|-4s6---4-4-4-2----4-|-4s6-4-(4)-----------|
|---------4-6-7------|--------------------|-----------4-6-7-----|
|--------------------|-----2--------------|---------------------|


    F#        E          F#          E        N.C.(A)
|--------------------|---------------------||------------------------------|
|-4s6---4-4-4-2----4-|-4s6-4-(4)-----------||------------------------------|
|--------------------|-----------4-6-7-----||-------0-(0)-------0-------0--|
|-----2--------------|---------------------||-0-2-3-------0-2-3---0-2-3----|


|-------------------|-----------------------------|--------------------------|
|-4s5-4-2-----------|-----------------------------|-4s5-4-2---------------0--|
|---------3-4-0-----|-------0-(0)-------0-------0-|---------3-4-0-------0----|
|-------------------|-0-2-3-------0-2-3---0-2-3---|-----------------0-2------|


 Fourth Verse
    E         D                  E         D
|----------------------------|-------------------------|
|-2s4-------2-0--0-0-------0-|-2s4-2-2-2-2-0---------0-|
|------------------------0---|---------------------0---|
|-----0-(0)----------0-2-----|-----------------0-2-----|


    E         D
|------------------------------|
|-2s4-------2-0--0-0-------0---|
|------------------------0-----|
|-----0-(0)----------0-2-------|


    E         D
|-------------------------|
|-2s4-2-x-x-x-0---------0-|
|---------------------0---|
|-----------------0-2-----|


    E           D                  E         D
|------------------------------|-------------------------|
|-2s4-2---------0--0-0-------0-|-2s4-2-2-2-2-0---------0-|
|--------------------------0---|---------------------0---|
|-------0-0-x-x--------0-2-----|-----------------0-2-----|


                                                        Fifth Verse
    E         D                  E         D       N.C.    E         D
                                                  2/4   4/4
|----------------------------|-------------------|-----|---------------------|
|-2s4-------2-0--0-0-------0-|-2s4-2-x-x-x-0-----|-----|---------------------|
|------------------------0---|-------------------|-----|-7s9---7-7-7-5----7--|
|-----0-(0)----------0-2-----|-------------------|-----|-----0---------------|


    E         D         E         D          E         D
|-------------------|--------------------|-------------------------------|
|-------------------|--------------------|-------------------------------|
|-7s9-7-7-7-4-5-----|-7s9-7-7-7-7-5----7-|-7s9-7-7-7-4-5--5-4-4-5-5-7-7--|
|-------------------|--------------------|-------------------------------|


    E         D          E         D          E         D
|--------------------|--------------------|---------------------|
|--------------------|--------------------|---------------------|
|-7s9---7-7-7-5----7-|-7s9---7-7-7-5----7-|-7s9---7-7-7-5----7--|
|-----0--------------|-----0--------------|-----0---------------|


    E         D                       E         D          E         D
|---------------------------------|--------------------|---------------------|
|---------------------------------|--------------------|---------------------|
|-7s9---7-7-7-5-(5)-5-4-4-5-5-7-7-|-7s9---7-7-7-5----7-|-7s9---7-7-7-5----7--|
|-----0---------------------------|-----0--------------|-----0---------------|


    E         D          E         D                       E         D
|--------------------|---------------------------------|---------------------|
|--------------------|---------------------------------|---------------------|
|-7s9---7-7-7-5----7-|-7s9---7-7-4-5-(5)-5-4-4-5-5-7-7-|-7s9---7-7-7-5----7--|
|-----0--------------|-----0---------------------------|-----0---------------|


    E         D          E         D          E         D
|--------------------|--------------------|----------------------------------|
|--------------------|--------------------|----------------------------------|
|-7s9-7-7-7-4-5----7-|-7s9---7-7-7-5----7-|-7s9---7-7-4-5-(5)-5-4-4-5-5-7-7--|
|--------------------|-----0--------------|-----0----------------------------|


   Outro
    N.C.(A)
||------------------------------|--------------------||
||o-----------------------------|-4s5-4-2-----------o||
||o-------0-(0)-------0-------0-|---------3-4-0-----o||
||--0-2-3-------0-2-3---0-2-3---|--------------------||
  development and support by
dmitry ivanov