rock
 
|tablatures   |lyrics   |discussion forums   |more tabs @ XGuitar.com

Led Zeppelin tabs

Nobody's Fault But Mine bass tab

Submitted By: Krash100
Song: Nobody's Fault But Mine
Band: Led Zeppelin
Tuning: Standard (G,D,A,E)

Bass comes in about 1:02 into the song
G|----------------|----------------|----------------|----------------|
D|2-0-0-----------|----------------|2-0-0-----------|----------------|
A|------2-0-0-----|----------------|------2-0-0-----|0---------------|
E|------------3---|0---------------|------------3---|----------------|

G|----------------|----------------|
D|----------------|----------------| X7
A|5-----5-----5---|7---------------|
E|--5-5---5-5-----|----------------|

G|--------------------------------|
D|--------------------------------|
A|--------------------------------|
E|0----2------3-----5-------------|
                             Ooh...It's nobody's fault but mine..

G|----------------|----------------|----------------|----------------|----|
D|----------------|----------------|----------------|----------------|----|
A|----------7-7-7-|----------7-7-7-|----------7-7-7-|----------2-0---|----|
E|----------------|----------------|----------------|--------------3-|0---|

G|----------------|----------------|----------------|----------------|----|
D|----------------|----------------|----------------|----------------|----|
A|----------7-7-7-|------7---7-7-7-|------7---7-7-7-|------7---2-0---|----|
E|----------------|0---------------|0---------------|0-------------3-|0---|

G|----------------|----------------|----------------|----------------|----|
D|----------------|----------------|----------------|----------------|----|
A|------7---7-7-7-|------7---7-7-7-|------7---7-7-7-|------7---2-0---|----|
E|0---------------|0---------------|0---------------|0-------------3-|0---|

G|----------------|----------------|----------------|----------------|
D|2-0-0-----------|----------------|2-0-0-----------|----------------|
A|------2-0-0-----|----------------|------2-0-0-----|0---------------|
E|------------3---|0---------------|------------3---|----------------|

 Play this During Solo
G|----------------|----------------|
D|----------------|----------------|
A|5-----5-----5---|7---------------|
E|--5-5---5-5-----|----------------|

Just repeat these riffs as necessary. This was initially tabbed by Jeff Stawman from a site called led-zeppelin.org.  I changed what I thought was wrong.  This is how I play it.
  development and support by
dmitry ivanov