rock
 
|tablatures   |lyrics   |discussion forums   |more tabs @ XGuitar.com

Led Zeppelin tabs

Moby Dick bass tab

Moby Dick - Led Zeppelin

downtune your E string a half step

    (x3)                          
G |--------------|----------------------------------------------------------------------|
D |--------------|---------------5530----------5530-------------------------------------|
A |--5530--------|--5530-------------1-31-3-1-------1-31-3-1--5530----------5530--------|
D#|0-----2-42-4-2|0-----2-42-4-24------------4--------------0-----2-42-4-20-----2-42-4-2|

                             (x3)            rest                   rest                  rest
G |-----------------/7-53--|---------------|------|---------------|------|--------------|------|
D |-7750770575555543-----53|---------------|------|---------------|------|-5530---------|------|
A |0-----------------------|--5530---------|------|--5530---------|------|-----1-31-3-1-|------|
D#|------------------------|0-----2-42-4-20|------|0-----2-42-4-20|------|4------------4|------|

                  rest
G |---------------|---|---------------------/7-753----|
D |---------------|---|-----7750770575555543------53-0|
A |--5530---------|---|----0--------------------------|
D#|0-----2-42-4-20|---|4456---------------------------|

   
   song outro
                   rest                 rest
G |---------------|-----|--------------|-----|-----------------/7-53----7--------|
D |---------------|-----|-5530---------|-----|-7750770575555543-----53--0-----7--|
A |--5530--------5|-----|-----1-31-3-1-|-----|0----------------------------3--0--|
D#|0-----2-42-4-2-|-----|4------------4|-----|-----------------------------------|
  development and support by
dmitry ivanov