rock
 
|tablatures   |lyrics   |discussion forums   |more tabs @ XGuitar.com

Led Zeppelin tabs

In The Light bass tab

LED ZEPPELIN
In The Light


Standard Tuning

  When bass comes in at approx. 02:45
G|----------------|----------------|----------------|----------------|
D|7-6-----5-------|----------------|7-6-----5-------|----------------|
A|----------7-----|6-5-----3-------|----------7-----|6-5-----3-------|
E|----------------|----------5-----|----------------|----------5-----| 2X

G|----------------|--------7-------|----------------|--------7-------|
D|--------7-------|5-7-4-3-------5-|--------7-------|5-7-4-3-------5-|
A|0---0-----------|----------8-7---|0---0-----------|----------8-7---|
E|----------------|----------------|----------------|----------------| 4X

G|----------------|
D|7-6-----5-------|
A|----------7-----|
E|----------------|

G|----------------|--------7-------|----------------|--------7-------|
D|--------7-------|5-7-4-3-------5-|--------7-------|5-7-4-3-------5-|
A|0---0-----------|----------8-7---|0---0-----------|----------8-7---|
E|----------------|----------------|----------------|----------------| 3X

G|----------------|--------7-------|
D|--------7-------|5-7-4-3-------5-|
A|0---0-----------|----------8-7---|
E|----------------|----------------|

G|----------------|----------------|----------------|----------------|
D|7-6-----5-------|----------------|7-6-----5-------|----------------|
A|----------7-----|6-5-----3-------|----------7-----|6-5-----3-------|
E|----------------|----------5-----|----------------|----------5-----| 2X


G|----------------|----------------|----------------|----------------|
D|----7-----5-----|3-----------5-7-|----------------|----------------|
A|----------------|------5-7-------|5---5-------3-4-|5---5-----------|
E|5---------------|----------------|----------5-----|----------0-2-3-|

G|----------------|----------------|----------------|----------7-7-9-|
D|----7-----5-----|3---------------|----------------|--5-3---7-------|
A|----------------|------5-7-----8-|5-3-5-------5---|5-----5---------|
E|5---------------|----------------|----------------|----------------|

G|----------------|----------------|----------7-----|9---9107--------|
D|7---7-----5-----|3-----------7---|----------------|-----------4-5--|
A|----------------|------5-7-8---8-|5---5-------5---|--5------5------|
E|----------------|----------------|----------------|----------------|

G|----------------|----------------|----------------|----------------|
D|7---7-----5-----|3-------2-----3-|----------------|----------------|
A|----------------|----------------|5---5-----------|----------------|
E|----------------|----------------|----------------|----------------|

G|----------------|----------------|----------------|----------------|
D|----------------|----------------|----------------|----------------|
A|----------------|----------------|----------------|----------------|
E|5---------------|----------------|----------------|----------------|

  When bass comes back in at approx. 05:51
G|----------------|
D|7-6-----5-------|
A|----------7-----|
E|----------------|

G|----------------|--------7-------|----------------|--------7-------|
D|--------7-------|5-7-4-3-------5-|--------7-------|5-7-4-3-------5-|
A|0---0-----------|----------8-7---|0---0-----------|----------8-7---|
E|----------------|----------------|----------------|----------------| 3X

G|----------------|--------7-------|
D|--------7-------|5-7-4-3-------5-|
A|0---0-----------|----------8-7---|
E|----------------|----------------|

G|----------------|----------------|----------------|----------------|
D|7-6-----5-------|----------------|7-6-----5-------|----------------|
A|----------7-----|6-5-----3-------|----------7-----|6-5-----3-------|
E|----------------|----------5-----|----------------|----------5-----| 2X

G|----------------|----------------|----------------|----------------|
D|----7-----5-----|3-------------7-|----------------|--7-7-9-7-------| 16X
A|----------------|------5-7---7---|5---5---------8-|----------8-7---| then
E|5---------------|----------------|----------------|--------------7-| fade
  development and support by
dmitry ivanov