rock
 
|tablatures   |lyrics   |discussion forums   |more tabs @ XGuitar.com

Led Zeppelin tabs

Heartbreaker bass tab

Heartbreaker - Led Zeppelin

  intro
G|----------------------------------------------------------------------------------------|
D|----------------------------------------------------------------------------------------|
A|0-3-5-67--00003-5-67--0-3-5-67--00003-5-67--2-5-7-89--22225-7-89--0-3-5-67--00003-5-67--|
E|--------3-----------3---------3-----------3---------5-----------5---------3-----------3-|

  verse
G|----------------------------------------------------------------------------------|
D|--------0----------------0------------------0------------------0--------0--0--7---|
A|0-0-/3----0-0-3--0-0-/3----0-0-313--0-0-/3----0-0-3-32-0-0-/3----0-0-3---0--0--9\-|
E|----------------------------------------------------------------------------------|

  "people talkin' all around about.."
G|--------------------------------------------0-12------0-12----0-2-34----0-2-34-----------------
D|--1-3-45----1-3-45----1-3-45----1-3-45--0-3-------0-3-------2-------0-2-------0--2-202---------
A|3-------1-3-------1-3-------1-3-------1---------3---------3----------------------------5-54300-
E|-----------------------------------------------------------------------------------------------


----------------------------------------------------|
2-202---------2-202---------2-202---------2-2-2-----|
------5-54300-------5-54300-------5-54300-------0---|
--------------------------------------------------0-|

  solo
G|------------------------------------------------------------------------|
D|---3-5-35---3-5-35---3-5-35-------3--------3--------3--------3----------|
A|---------5--------5--------5--3-5--53--3-5--53--3-5--53--3-5--53-simile-|
E|35--------5--------5--------5--------5--------5--------5----------------|

  development and support by
dmitry ivanov