rock
 
|tablatures   |lyrics   |discussion forums   |more tabs @ XGuitar.com

Led Zeppelin tabs

Down By The Seaside bass tab

LED ZEPPELIN
Down By The Seaside


Standard Tuning

  12/8 time
G|------------------------|------------------------|------------------------|
D|------------------------|3-----------------------|5-----------------------|
A|------------------------|------------------------|------------------------|
E|------------------------|------------------------|------------------------|

G|------------------------|------------------------|------------------------|
D|3-----------------------|3-----------------------|3-----------------------|
A|------------------------|------3-----------------|------------------------|
E|------------------------|------------------------|------------------------|

G|------------------------|------------------------||------------------------|
D|5-----------------------|3-----------------------||3-----------------------|
A|------------------------|------------------------||------3-----------------|
E|------------------------|------------------------||------------------------|
                                                           Down by_______ the

G|------------------------|------------------------|----------------------5-|
D|3---------------------5-|------------------------|3-----------------------|
A|------------------------|3-----------------------|------------------------|
E|------------------------|------------------------|------------------------|
  seaside

G|------------------------|------------------------|------------------------|
D|------------------------|3-----------------------|------------------------|
A|3-----------------------|------------------------|3---------------------3-|
E|------------------------|------------------------|------------------------|

G|------------------------|------------------------|------------------------|
D|------3---------3-3-----|----3-3---------3-3-----|------------------------|
A|3-----------------------|------------------------|3-----3-----3-----3-----|
E|------------------------|------------------------|------------------------|

G|------------5-----------|------------------------|------------------------|
D|------------------------|3-----------------------|3-----------------5-----|
A|3-----3-----------3---3-|------------------------|------------------------|
E|------------------------|------------------------|------------------------|

G|--------------5---------|------------------------|------------------------|
D|------------5-----5-----|----------------------2-|3-----------------------|
A|3-----------------------|3---------------3-5-----|----------------------3-|
E|------------------------|------------------------|------------------------|

G|------------------------|------------------------|------------------------|
D|3-----------------2-----|3-----3-----3-----------|------------------------|
A|------3-----5-----------|------------------------|3-----------------------|
E|------------------------|------------------------|------------------------|
                           People turned away

G|------------------------|------------------------|------------------------||
D|3-----3-----3-----------|------------------------|------------------------||
A|------------------------|3-----------------------|(3)---------------------||
E|------------------------|------------------------|------------------------||
  People turned away

G|------------------------|------------------------|------------5-----------|
D|------------------------|3-----------------------|------------------5-----|
A|3-----------------------|------------------------|3-----------------------|
E|------------------------|------------------------|------------------------|

G|------------------------|------------------------|------------------------|
D|3---------------------5-|------------------------|3-----------------------|
A|------------------------|3-----------------------|------------------------|
E|------------------------|------------------------|------------------------|

G|------------------------|------------------------|------------------------|
D|------------------------|------3---------3-3-----|----3-3---------3-3-2---|
A|3-----------------------|3-----------------------|----------------------5-|
E|------------------------|------------------------|------------------------|

G|------------5-----------|------------------------|------------------------|
D|------------------5---5-|------------------2-----|3-----------------------|
A|3-----------------------|3-----------5---5-------|----------------------3-|
E|------------------------|------------------------|------------------------|

G|------------------------|------------5-----------|------------------------|
D|3---------------3-5-----|-------------------5----|------------------2-----|
A|------------------------|3-----------------------|3-----------5-----------|
E|------------------------|------------------------|------------------------|

G|------------------------|------------------------|------------------------|
D|3-----------------------|3---------------------2-|3-----------3---------3-|
A|----------------------3-|------------------3-5---|------------------------|
E|------------------------|------------------------|------------------------|

G|------------------------|------------------------||
D|------------------------|3-----3-----3-----------||
A|3-----------------------|------------------------||
E|------------------------|------------------------||

  4/4 time
G|2-2-2-2-2-2-2-2-|2-2-2-2-2-2-2-2-|2-2-2-2-2-2-2-2-|2-2-2-2-2-2-2-2-|
D|----------------|----------------|-----4-------4--|-----4-------4--|
A|----------------|----------------|----------------|----------------|
E|----------------|----------------|----------------|----------------|

G|2-2-2-2-2-2-2-2-|2-2-2-2-2-2-----|2-2-2-2-2-2-2-2-|2-2-2-2-2-2-----|
D|-----4-------4--|------------4-2-|-----4-------4--|-----4------4-2-|
A|----------------|----------------|----------------|----------------|
E|----------------|----------------|----------------|----------------|

G|2-2-2-2-2-2-2-2-|2-2-2-2-2-2-----|2-2-2-2-2-2-2-2-|2-2-2-2-2-2-----|
D|-----4-------4--|-----4------4-2-|-----4-------4--|-----4------4-2-|
A|----------------|----------------|----------------|----------------|
E|----------------|----------------|----------------|----------------|

G|2-2-2-2-2-2-2-2-|2-2-2-2-2-2-----|2-2-2-2-2-2-2-2-|2-2-2-2-2-2-----|
D|-----4-------4--|-----4------4-2-|-----4-------4--|-----4------4-2-|
A|----------------|----------------|----------------|----------------|
E|----------------|----------------|----------------|----------------|

G|2-2-2-2-2-2-2-2-|2-2-2-2-2-2-----|----------------|----------------|
D|-----4-------4--|-----4------4-2-|----------------|----------------|
A|----------------|----------------|----------------|----------------|
E|----------------|----------------|----------------|----------------|
                            Can you still do the twist....

G|----------------|----------------|----------------|2-2-2-2-2-2-2-2-||
D|------------57--|-------7-57-----|7---------------|----------------||
A|5----------5----|5-----------5---|----------------|----------------||
E|----------------|----------------|----------------|----------------||

  12/8 time
G|------------------------|------------------------|------------------------|
D|0---------------------2-|3-----------------------|5-----------------------|
A|------------------------|------------------------|------------------------|
E|------------------------|------------------------|------------------------|

G|------------------------|------------------------|------------------------|
D|3-----------------------|3-----------------------|3-----------------------|
A|------------------------|------3-----------------|----------------------5-|
E|------------------------|------------------------|------------------------|

G|------------------------|------------------------||------------------------|
D|5-----------------------|------------------------||------------------------|
A|----------------------3-|------------------------||------3-----------------|
E|------------------------|1-----------------------||1-----------------------|
                                                     Out in the country....

G|------------------------|------------------------|------------------------|
D|3-----------------------|------------------------|3---------------------5-|
A|------------------------|3-----------------------|------------------------|
E|------------------------|------------------------|------------------------|

G|------------5-----------|------------------------|------------------5-----|
D|------------------5-----|3---------------------5-|------------5-----------|
A|3-----------------------|------------------------|3-----------------------|
E|------------------------|------------------------|------------------------|

G|------------------------|------------------------|------------------------|
D|------3---------3-3-----|----3-3---------3-3-----|------------------------|
A|------------------------|------------------------|3-----------------------|
E|------------------------|------------------------|------------------------|

G|------------5-----------|------------------------|------------------------|
D|----------------------2-|3-----------------------|3-----------------3---5-|
A|3-----------------3-----|----------------------3-|------------------------|
E|------------------------|------------------------|------------------------|

G|------5-----5-----------|------------------------|------------------------|
D|------------------5-----|------------------------|3-----------------------|
A|3-----------------------|3-----------------------|----------------------3-|
E|------------------------|------------------------|------------------------|

G|------------------------|------------------------|------------------------|
D|3-----------------2-----|3-----3-----3-----------|------------------------|
A|------3-----5-----------|------------------------|3-----------------------|
E|------------------------|------------------------|------------------------|

G|------------------------|------------------------|------------------------||
D|3-----3-----3---------5-|------------------------|------------------------||
A|------------------------|3-----------------------|(3)---------------------||
E|------------------------|------------------------|------------------------||

G|------------------------|------------------------|------------------------|
D|------------------------|3---------------------5-|------------------------|
A|3-----------------------|------------------------|3-----------------------|
E|------------------------|------------------------|------------------------|
  Sing loud for the        sunshine

G|------------------------|------------------------|------------------------|
D|3---------------------5-|------------------------|3---------------------5-|
A|------------------------|3-----------3---3-3---3-|------------------------|
E|------------------------|------------------------|------------------------|

G|------------------5-----|------------------------|------------------------|
D|------------------------|3-----3---------3-3-----|----3-3---------3-3---5-|
A|3-----------------------|------------------------|------------------------|
E|------------------------|------------------------|------------------------|

G|------------------5-----|------------------------|------------------------|
D|------------5-----------|------------------2-----|3-----3---3-3---3-3---3-|
A|3-----------------------|3-----------5-----------|------------------------|
E|------------------------|------------------------|------------------------|

G|------------------------|------------------5-----|------------5-----------|
D|3-----------3-5---3-5---|------------------------|----------5-------------|
A|------------------------|3-----------------------|3-----------------------|
E|------------------------|------------------------|------------------------|

G|------------------------|------------------------|------------------------|
D|3-----------------------|3-----------------2-----|3-----3-----3---------5-|
A|----------------------3-|------3-----5-----------|------------------------|
E|------------------------|------------------------|------------------------|

G|------------------------|------------------------|------------------------|
D|------------------------|3-----3-----3-----------|------------------------|
A|3-----------------------|------------------------|3-----------------------|
E|------------------------|------------------------|------------------------|

G|------------------------||
D|------------------------||
A|(3)---------------------||
E|------------------------||
  development and support by
dmitry ivanov