rock
 
|tablatures   |lyrics   |discussion forums   |more tabs @ XGuitar.com

Led Zeppelin tabs

Carouselambra bass tab

CAROUSELAMBRA

As recorded by Led Zepplin
(From the 1979 Album IN THROUGH THE OUT DOOR)

Transcribed by Omnicurse
E-mail any questions to Omnicurse@hotmail.com


 Intro
  Q=118
 4/4
  Gtr I
|---------|---------|------------|---------------------------|
|---------|---------|--------5-6-|-7---------7-----------5-6-|
|---------|---------|------------|---0-0-(0)---0-0-0-0-0-----|
|---------|---------|------------|---------------------------|


|---------------------------|-----------------------------|
|-7-7-------------7-----5-6-|-7---------7-------7---7-5-6-|
|-----0-(0)-0-(0)---0-0-----|---0-0-(0)---0-(0)---0-------|
|---------------------------|-----------------------------|


|-----------------------------||
|-7-7-------7-------7---4-5-6-||
|-----0-(0)---0-(0)---0-------||
|-----------------------------||


   Verses 1 and 2
||--------------------------|---------------------------|
||o-7-------7-(7)-----7-5-6-|-7-------7-------7---7-5-6-|
||o---0-(0)-------0-0-------|---0-(0)---0-(0)---0-------|
||--------------------------|---------------------------|


|------------------------------|
|-7---------7-------7---7-5-6--|
|---0-0-(0)---0-(0)---0--------|
|------------------------------|


|---------------------------|--------------------5-|----5----3-2-2---2-----|
|-7---------7---7-7---7-5-5-|--------------5-5h7---|-------5-------5---1s2-|
|---0-0-(0)---0-----0-------|-3-3-3--3-5s7---------|-3---------------------|
|---------------------------|----------------------|-----------------------|


|----------------------5-|----5--x-3-2-2---------|-------------------------|
|----------------5-5h7---|---------------5-2-----|-------------------2-0---|
|-3-x-3--x-3-5s7---------|-3---------------------|---------------2s4-----3-|
|------------------------|-------------------3-4-|-5-5-5-(5)-5-5-----------|


|---------------------------|
|-------------------5-6-7-7-|
|---------------------------|
|-5-5-5-(5)-5-5-5-x---------|


|-------------------------|-----------------7-8-9-----|
|-------------------2-0---|-----------5-6-7-----------|
|---------------2s4-----3-|-----------------------0-2-|
|-5-5-5-(5)-5-5-----------|-5-5-5-(5)-----------------|


|-------------------------5-|-----5--x-3-2---2-----|
|-------------------5-5h7---|---5----------5---5-2-|
|-3-3-3-(3)-3-3-5s7---------|-3--------------------|
|---------------------------|----------------------|


|-------------------------5-|-------7-8-9-------5-|--------------------------|
|-------------------5-5h7---|-------------5-6-7---|-------------------2-0----|
|-3-x-3-(3)-x-3-5s7---------|-3--3----------------|---------------2s4-----3--|
|---------------------------|---------------------|-5-5-5-(5)-5-5------------|


|-----------------------|-------------------------|--------------------|
|---------5h7-5h7-5h7-7-|-------------------2-0---|---7--7-7-5-7-5-----|
|---5-(5)---------------|---------------2s4-----3-|----------------3-4-|
|-5---------------------|-5-5-5-(5)-5-5-----------|-5------------------|


|--------------------7-|--------10s9-(9)-7-7-7-----|---------------------7-|
|--------------7-7h9---|-----------------------7h9-|---------------7-7s9---|
|-5-x-5--5-7s9---------|-5--5s9--------------------|--5-5--5-5-7s9---------|
|----------------------|---------------------------|-----------------------|


|---------------------|-----------------------|
|---------------------|---x-3-1-(1)-0-0-0-----|
|-5-5-5-5--5-5-5-5----|-------------------3-0-|
|---------------------|-1---------------------|


                           1.
|-------------------------|---------------------------|
|-----3-(3)-1-1-----------|---x-3-(3)-x-1-(1)-0-0-----|
|---------------0-0-0-3-0-|-----------------------3-0-|
|-1-x---------------------|-1-------------------------|


                              2.
|--------------------------||-------------------------|----------------------||
|---3-3-(3)-1-1-----------o||-----x-3-1-(1)-0-0-0-----|-----x-3-1-3-3-3-5-5--||
|-------------------3-0---o||---------------------3-0-|----------------------||
|-1-------------3s5-----1--||-1-1---------------------|-1-1------------------||


 Verse 3
|-------------------------|----------------------------|
|-----7--7-5-------7--7-5-|-------7--5-7-5-3---3-5---5-|
|-0-0--------0-0-0--------|-0-0-0------------5-----7---|
|-------------------------|----------------------------|


|---------------------------|
|-----7--7-5-------7--7-5---|
|-0-0--------0-0-0----------|
|---------------------------|


|------------------|-----------------------|-------------------------|
|---7--x---3-3-5-5-|-----7--x-5-----7--x---|-----7s9s7-x-7-3-3-----5-|
|-0------0---------|-0-0--------0-0------0-|-0-0---------------3s5---|
|------------------|-----------------------|-------------------------|


|-----------------|--------------------------|
|---7--5---7--x-5-|---7--x-5-7-7-7-7-7-7-7-5-|
|-0------0--------|-0------------------------|
|-----------------|--------------------------|


|------------------------5-|-----5----3-2---2-----|----------------------5--|
|------------------5-5-7---|--------5-----5---5-2-|----------------5-5h7----|
|-3-3-3-3--3-3-5s7---------|-3-x------------------|-3-x-3--3-3-5s7----------|
|--------------------------|----------------------|-------------------------|


|-----5----3--2-------|----------------0-0-2-|----------------------------|
|---5----5------5-0-2-|-----7--------2-------|-------------------2-2-0----|
|-3-------------------|-0-x----0-2s4---------|-0-x-0-(0)-x-0-2s4-------3--|
|---------------------|----------------------|----------------------------|


|---------------------------|--------------------|
|-------------------2-5h7-7-|-----2--0-0---------|
|-0-x-0-(0)-x-0-2s4---------|-0-0--------3-0-0---|
|---------------------------|------------------3-|


|--------------------5-|-----5--0-7-8-9-----5-----|-------------------------|
|--------------5-5h7---|---x------------5-7---7-5-|-------------------5-3-2-|
|-3-3-3--3-5s7---------|-3------------------------|-3-x-3-(3)-3-3-5s7-------|
|----------------------|--------------------------|-------------------------|


|-----5----3---2---------|---------------------0-2-|---------------------------|
|---5----5---5---5-5-2-2-|-------------------2-----|-------------------2-2-0---|
|-3----------------------|-0-x-0-(0)-0-0-2s4-------|-0-x-0-(0)-x-0-2s4-------3-|
|------------------------|-------------------------|---------------------------|


|-----------------------------|----------------------|
|-------------------2-5h7-7-7-|-----2--0-0-----------|
|-0-x-0-(0)-0-0-2s4-----------|-0-0--------3-3-0-0-0-|
|-----------------------------|----------------------|


|-------------------------|-------------------------|------------------9-10-|
|-------------------7-7-9-|-------------------7-----|--------------7-7------|
|-5-5-5-(5)-5-5-7s9-------|-5-5-5-(5)-5-5-7s9-------|-5-x-5--5-7s9----------|
|-------------------------|---------------------5-7-|-----------------------|


|-11-----7-----|-------------------------|-------------------------|
|-----7--------|---x-3-(3)-1-1-0-0-0-----|-----3-------------------|
|--------------|---------------------3-0-|---3----x-0-3-3-3h5-3-5--|
|--------------|-1-----------------------|-1-----------------------|


|------------------------|-----------------------------|
|-----3--x-1-(1)---------|-------------------3-3s5-5-5-|
|---3------------3h5-3-0-|-----0-(0)-x-3-3s5-----------|
|-1----------------------|-1-x-------------------------|


|------------------------------|
|-7-7-7-(7)-5-6-7-7-------5-6--|
|-------------------0-(0)------|
|------------------------------|


|---------------------|-----------------------------|----------------------|
|-7-------7-7-5-3--5--|-----7-(7)-7-5-----7-(7)-7-5-|---7-(7)-7-7-5-3--5---|
|---0-(0)-------------|-0-0-----------0-0-----------|-0--------------------|
|---------------------|-----------------------------|----------------------|


|-------------------------|-----------------------|
|-7-7-(7)-7-5---7-(7)-7-5-|---7-(7)-7-7-5-3---5---|
|-------------0-----------|-0---------------3-5-0-|
|-------------------------|-----------------------|


|-------------------------|---------------------------||
|---7-(7)-7-5---7-(7)-7-5-|---7-(7)-7-5-7-5-----------||
|-0-----------0-----------|-0---------------7-5-3-3-0-||
|-------------------------|---------------------------||


 Bridge
|-----------|------------|-----------|
|-----------|------------|-----------|
|-----------|------------|-----------|
|-1------0--|-1------0-0-|-1------0--|


|-----------|-----------------------------|-------------7s9-7s5-|
|-----------|-----7-(7)-7-5-----7-(7)-7-5-|-----7-7-7-5---------|
|-----------|-0-0-----------0-0-----------|-0-0-----------------|
|-1------3--|-----------------------------|---------------------|


|-----------------------------|-------------------|
|-----7-(7)-7-5-----7-7-7-5h7-|---7-(7)-7-5-3--5--|
|-0-0-----------0-0-----------|-0-----------------|
|-----------------------------|-------------------|


|--------------|---------------|---------------|
|--------------|---------------|---------------|
|--------------|---------------|---------------|
|-1------(1)-0-|-1----(1)-1--0-|-1----(1)-1--0-|


|---------------|-------------------|
|---------------|---7--7-5---7--7-5-|
|---------------|-0--------0--------|
|-1----1-0-1-3--|-------------------|


|------------------|-------------------|
|---7--7-5-3--5s=7-|---7--7-5---7--7-5-|
|-0----------------|-0--------0--------|
|------------------|-------------------|


|-----5-----------|------------|-------------|
|---7---7-5-3--5--|------------|-------------|
|-0---------------|------------|-------------|
|-----------------|-1----3--0--|-1----3--0---|


|------------|---------------||
|------------|---------------||
|------------|---------------||
|-1----3--0--|-1----3--0-0-0-||


   Second Theme
||--------7-(7)---7-|------7-(7)--(7)-----|-7s9--7-7-(7)------|
||o-----------------|-----------------7h9-|----------------9--|
||o-5-5-5-----------|-5-5-----------------|-------------------|
||------------------|---------------------|-------------------|


|---------------------|-----7-(7)--(7)-----|
|-7-7-5---------------|----------------7-9-|
|-------5-(5)---------|-5------------------|
|-------------5h7-5-7-|--------------------|


|-7---7----7-(7)----|-7----------------------||
|---9----9----------|---9-7-(7)-------7------||
|-------------------|-----------5-(5)---5S===||
|-------------------|------------------------||


 Verses 4 and 5
  halftime feel Q=59
|----------------|------9----------9s=2-|-9-9-9-9-7s9-9-7-9s12s=7-|
|----------------|--------10-12-10------|-------------------------|
|-0------(0)-0-2-|-3--------------------|-------------------------|
|----------------|----------------------|-------------------------|


|----------------9-----------|------------------5-----------|
|----------10-10---10--------|----9--9p7-9--9p7---9-7---7h9-|
|----------------------5-3-2-|-0----------------------9-----|
|-8----(8)-------------------|------------------------------|


|-5--7-9-9-5-4-5-(5)-(5)-----5---7-10-|-9--12-12-12p11-12s9-(9)----------|
|------------------------5s7---7------|----------------------------14s12-|
|-------------------------------------|-------------------------12-14s12-|
|-------------------------------------|----------------------------------|


|----9-12-(12)--(12)-------------------|--------------------------------|
|-10---10-(10)--(10)-10-12-10----------|---------------14--14-(14)-11---|
|-----------------------------10h11-12-|-10h11h12-(12)------------------|
|--------------------------------------|--------------------------------|


                 1.                        2.
|-------7-(7)s9-|-9--(9)-7-9-9--9-9------||-----------------------||
|---------------|-----------------------o||---------7-------------||
|-3-------------|-------------------0-2-o||-5s7-0-0---5-7-0-0-0-0-||
|---------------|------------------------||-----------------------||


 Bridge
  Q=118
|---------------7-|-------------7-7---|
|-----------------|-----------7-----7-|
|-5---5-(5)-5-5---|-5---5-(5)---------|
|-----------------|-------------------|


|-----------------|----------------------------|
|-------7s9-7-7S0-|-0-0-0-0-0-0-0--------------|
|-5---5-----------|---------------2-2-0-0-2-2--|
|-----------------|----------------------------|


|--------------7-7-|-----7----7-(7)--7--|---------------------||
|------------7-----|---7----7-----------|----7----------------||
|-5-5--5-(5)-------|-5------------------|-5----5-(5)-5-5------||
|------------------|--------------------|----------------7-7--||


 Verse 6
  Q=59
|------------------|------7p5-5-5--------|
|------------------|---------------------|
|-0------(0)-0-5h7-|-3-------------7-5-3-|
|------------------|---------------------|


|----------------------|---5-5-(5)--11s12-14-12-12s14-12s14-|
|----------------------|------------------------------------|
|-0--(0)-3s5-3-0-0-0-2-|-3----------------------------------|
|----------------------|------------------------------------|


|-14--(14)-14p12-(12)-12p11-(11)-11-11p9-(9)s2-|----------------5-4-2------|
|----------------------------------------------|----------5-4-5-------5-5--|
|----------------------------------------------|-3--(3)-3------------------|
|----------------------------------------------|---------------------------|


|------------------------|---5-5-5-5-5-7-5---5h7-||
|-7--(7)-5-5-------------|-----------------------||
|------------7-5-0-0-0-2-|-3---------------------||
|------------------------|-----------------------||


 Bridge
  Q=118
|----------|--------||
|----------|--------||
|-0--------|-(0)----||
|----------|--------||


 Third Theme
|----------------------|-----------------------|----------------------------|
|---5--3-3-3-5-5-3h5-5-|---5-x-x-3-3s5-x-3-2-0-|---5-x--3-3h5-x-x-x-3s5-5---|
|----------------------|-----------------------|----------------------------|
|-3--------------------|-3---------------------|-3--------------------------|


|---------------------|----------------------|---------------------|
|---5-x--3-3h5-5-5s=2-|---7--5-5h7-x-0-5h7-7-|---7--5-5s7-7--------|
|---------------------|----------------------|--------------5-7-7--|
|-3-------------------|-5--------------------|-5-------------------|


|----------------------|---------------7-6---|
|---7--5-5h7-x-0-5h7-7-|---7-x--5-5h7------7-|
|----------------------|---------------------|
|-5--------------------|-5-------------------|


|-----------------------------|------------------7p0h4-|
|---5-x-x-3-3h5-5-5-0-3h5-----|---5-x--3-3h5-5---------|
|-------------------------3h5-|----------------5-------|
|-3---------------------------|-3----------------------|


|---------------5-5-5-|-4-4--------------------|
|---5--3-3h5--3-------|-----5-5-(5)-3-3-3-5-5--|
|---------------------|------------------------|
|-3-------------------|------------------------|


|------------------------7-7-|-6--------------7-6---|
|---7-x--5-5h7-x-x-0-5-7-----|---7--5-5-5-7-7-------|
|----------------------------|----------------------|
|-5--------------------------|--------------------5-|


|-----------------------7-7-|-6----------7p6-------|
|---7-x--5-5--x-x-x-5h7-----|---7-x--5-5-----7-5---|
|---------------------------|--------------------7-|
|-5-------------------------|----------------------|


|---------5-5-5h7-x-x-x-5-----|---7--5-5--5-0-7-5-----|
|-------------------------7-5-|-------------------7-7-|
|-5-5-5-5---------------------|-5---------------------|
|-----------------------------|-----------------------|


|---7-x--5-5--x-x---5-----|---7--5-x-5-------------|
|-----------------5---5-5-|------------5-5-5-7-7-7-|
|-5-----------------------|-5----------------------|
|-------------------------|------------------------|


|------------------------7-7-|
|---7-x--5-5h7-x-x-0-5-7-----|
|----------------------------|
|-5--------------------------|


|-6------------------7-9-9-9-|------------------------7-7-|
|---7-x--5-5-5-7-7-7---------|---7-x--5-5h7-x-x-0-5-7-----|
|----------------------------|----------------------------|
|----------------------------|-5--------------------------|


|-6------------------7-9-9-9-|---7--5-5h7-7---5h7-7-|
|---7-x--5-5-5-7-7-7---------|--------------7-------|
|----------------------------|-5--------------------|
|----------------------------|----------------------|


|---7--5-5h7-7---5h7-7-|---7--5-5h7-7---5h7-7-|---7--5-5---5h7----||
|--------------7-------|--------------7-------|----------------7--||
|-5--------------------|-5--------------------|-5-----------------||
|----------------------|----------------------|-------------------||


 Bridge
|-----------------|-8h11p8-11----8----------|
|-----7-----------|------------9----4-4-4---|
|---7-------------|-----------------------6-|
|-5------7-(7)----|-------------------------|


|-----------------|-----------------------------|------------------|
|---7--7s9-(9)----|-9-9-9--x-9-9-9--------------|---7--7s9-(9)-----|
|-----------------|----------------9-9-7--x-9s6-|------------------|
|-5---------------|-----------------------------|-5----------------|


|-11------11------11-----|--------------------|---------8-8-----------------||
|----9-9-----9-9-----9-9-|--------------------|-9-9-9-9-----9-9-9-9---------||
|------------------------|--------------------|---------------------9-9-9-9-||
|------------------------|-5-5-(5)-5s7-(7)----|-----------------------------||


 Chorus
|-------------------|------------------------|
|---5--3-3-5--3-3-5-|---5--3-3-3-5-5-3-5-5-5-|
|-------------------|------------------------|
|-3-----------------|-3----------------------|


|--------------------|------------------------|
|---5--3-3-5-x-3-5-5-|---5-x--3-3-3-5-0-5-6-7-|
|--------------------|------------------------|
|-3------------------|-3----------------------|


|-----------------------|----------------------|
|---7-x--5-5--x-5-5h7-7-|---7--5-5-5-7-5-7-5-7-|
|-----------------------|----------------------|
|-5---------------------|-5--------------------|


|----------------------|------------------------|
|---7--5-5-5-7-5-7-5-7-|---7--5-5-5-----5-------|
|----------------------|------------5-5---7-5-3-|
|-5--------------------|-5----------------------|


|----------------------5-5-|-4------------------|
|---5--3-3s5-x-x-x-3h5-----|---5-x--3-3---3h5-5-|
|--------------------------|--------------------|
|-3------------------------|--------------------|


|----------------------5-5-|-4--------------3h4-------|
|---5--3-3s5-x-x-x-3h5-----|---5-x--3-3-3h5-----5-3-5-|
|--------------------------|--------------------------|
|-3------------------------|--------------------------|


|------------------------7-7---|
|---7-x--5-5h7-x-x-0-5-7-------|
|------------------------------|
|-5----------------------------|


|-6--------------------------|------------------6-6-7-7--|
|---7-x--5-5h7-x-x-0-5h7-7-7-|---7-x--5-5h7-7-7----------|
|----------------------------|---------------------------|
|----------------------------|-5-------------------------|


|-6------------------|---7-x--5-5h7---x-5h7-7-|
|---7--5-5h7-7-7-5---|------------------------|
|------------------7-|-5----------------------|
|--------------------|------------------------|


|---7--5-5h7-7-9-7---|---7--5-5------------|
|-5----------------7-|------------------12-|
|--------------------|-5----------10s12----|
|--------------------|---------------------|


|-12p11-------------------|
|-------12-10-9--10--9----|
|----------------------12-|
|-------------------------|


|------------------------7-7-|-6--------------7-6-----|
|---7-x--5-5h7-x-x-0-5-7-----|---7--5-5-5-7-7-----7---|
|----------------------------|------------------------|
|-5--------------------------|------------------------|


|---------------------7-7-|-6---------------------|
|---x-x--5-5--5-0-5s7-----|---7-7-5-7-7-7-(7)-5---|
|-------------------------|---------------------7-|
|-5-----------------------|-----------------------|


|---7--5-5h7-7-5h7-7-|---7--5-5---5--7-5---|
|--------------------|----------7--------7-|
|-5------------------|-5-------------------|
|--------------------|---------------------|


|---7--5-5---5-0-5-----|---7-x--5-5--0-0-7-5---||
|----------7-------7-5-|---------------------7-||
|-5--------------------|-5---------------------||
|----------------------|-----------------------||


 Outro
|---------------------|--8-11-11--14-14-14-14-|------------------------|
|---7--7s9-(9)-9-9-7--|-----------------------|---7--7s9-(9)-9-9-(9)---|
|---------------------|-----------------------|------------------------|
|-5-------------------|-----------------------|-5----------------------|


|-----------11--11----------|---------------|------------------------------|
|-9-9-11s13--------11s13-9--|---x-7--7--9---|-9-7-7------------------------|
|---------------------------|---------------|-------9-9-6-(6)-9-6-9-9-9-6--|
|---------------------------|-5-------------|------------------------------|


|-----------------|----11-11-11-11-11-11-(11)-11-11-11-11--|------------------|
|---7--7s9-(9)----|-13-13-13-13-13-13-13-(13)-13-13-13-13--|---7--7s9-(9)-----|
|-----------------|----------------------------------------|------------------|
|-5---------------|----------------------------------------|-5----------------|


|--------------------|-------------------------|---------------------|
|--9-7-9---7h9-9-7---|---------7s9-(9)-9-9--7--|--9-7-9---7h9-9-7----|
|--------------------|-------------------------|---------------------|
|--------------------|-5-5-(5)-----------------|---------------------|


|-------------------|--8----7-8---|-------------------|
|-------------------|-------------|-------------------|
|-------------------|-------------|-------------------|
|-5---5--5-7-(7)----|-------------|-5---5--5-7-(7)----|


|------------------------11s4--|
|-7---9--x-7s9-(9)-9-9-9-------|
|------------------------------|
|------------------------------|


|--------------------------|---11---11----11s13-13-11---|
|--------7s9-(9)-9-9-9---7-|-9----9-----9---------------|
|--------------------------|----------------------------|
|-5-x-4--------------------|----------------------------|


|--------------------|-------------------|--------------------------|
|--------7s9-(9)--0--|-5s9---9-9----x----|-7------7s9-(9)-9-9-------|
|--------------------|-----------9-------|---------------------9s12-|
|-5---5--------------|-------------------|-----5--------------------|


|---------14----------------|----------------0-0---|
|-16-------------16-----16--|--------7s9-(9)-------|
|----14-x----x-x----x-x-----|----------------------|
|---------------------------|-5---5----------------|


|-------------14s21-21-16s24---|
|-7s9-9--9s11------------------|
|------------------------------|
|------------------------------|


|------------------9s11-------|
|--------------9-9------13s16-|
|-----------------------------|
|-5-x-5--7-(7)----------------|


|-------------------------|------------------------|
|-13---13-----12s11s13--8-|-----------7s9-(9)-9----|
|----------12-------------|-0-x-0-(0)--------------|
|-------------------------|------------------------|


|-8-----8-8-8--x-x---|---------|---------|-----*|
|---9-x--------------|---------|---------|-----*|
|--------------------|---------|---------|-----*|
|--------------------|---------|---------|-----*|
  development and support by
dmitry ivanov