rock
 
|tablatures   |lyrics   |discussion forums   |more tabs @ XGuitar.com

Led Zeppelin tabs

Bring It On Home bass tab

From: EWJR18C@prodigy.com (Billy Karren)
Subject: BTAB: Bring It On Home - Led Zep

Bring It On Home
Led Zeppelin

/ = slide up

g-------------------------
d-----------5/9-7-6-7-6---
a-----5-7---------------7-
e-5-7-----0---------------

g-------------------------
d-----------5/9-7-6-7-6---
a-----5-7-----------------
e-5-7-----0---------------

the rest goes basically like this, with little things added in for spice

g------------------------------
d-2-2---------2-2-2---2---2----
a---------2-4-------4---4------
e-----3-4-------------------3-0


7--0-----------| 3X

G| |----------------|----------------|----------------|----------------|
D|o|----------------|----------------|----------------|----------------|
A|o|--------------7-|7--7-7--77------|7--777--------7-|7--7-7-7-7-7----|
E| |0--0---4-5-7-9-9|----9--9----3-0-|-------4-5-7-9--|----9-------3-0-|
    Gotta tell you baby...            Tryin' to love me baby...
    Tell you pretty baby...           I'm gonna keep you lovin'...

G|----------------|----------------|----------------|----------------|
D|----------------|----------------|----------------|----------------|
A|7--777--------7-|7--7-7-7-7-7----|7--777-------7--|7--777-4-7------|
E|-------4-5-7-9--|----9-------3-0-|-------457-79--9|------------3-0-|

G|---------7-----9|----------------|-----------7---9|
D|-------79--9911-|----------------|---------79-911-|
A|7--777----------|7--75-----------|7--777-7--------|
E|----------------|-----7-5-4-43-0-|----------------|

G|----------------|-----------7---9|----------------|----------------|
D|----------------|---------79-911-|----------------|----------------|
A|7--777-5--------|7--777-7--------|7--777-5--------|7--77--7---775--|
E|---------7-53-0-|----------------|---------7-53-0-|--------------7-|

G|----------------|----------------|----------------|----------------|
D|-------9--767---|-------9--7676--|-------9--767---|-------9--7676--|
A|--57------------|--57----------7-|--57------------|--57----------7-|
E|57--0-----------|57--0-----------|57--0-----------|57--0-----------|
                                   __________________
                                   1.                |
G|----------------|----------------|---------------- |
D|-------9--767---|-------9-97676--|-------9-9767---o|
A|--57------------|--57----------7-|--57------------o|
E|57--0-----------|57--0-----------|57--0----------- |
 _________________
 2.
G|----------------|----------------|
D|-------9--767---|7---------------|
A|--57------------|----------------|
E|57--0-----------|----------------|

G|----------------|
D|----------------|
A|----------------|
E|----------------| 8X

tabbed by Achilles (blue_sincere@hotmail.com)
portions of this tab were taken from work by Billy Karen (EWJR18C@prodigy.com)
  development and support by
dmitry ivanov