rock
 
|tablatures   |lyrics   |discussion forums   |more tabs @ XGuitar.com

Led Zeppelin tabs

Black Dog bass tab

Black Dog - Led Zeppelin

  verse riff
G|-012-5-2-7h95h6h752-5-2--2-----------|
D|2---2-------------------2---0-0------|
A|---------------------------3-3-0-0---|
E|-------------------------------------|

  interlude
G|---------------------------------012-5-2-7h95h6h752-5-2--2----------|
D|-012-5-2---02-5-2--012-5-2---02-2---2-------------------2---0-0-----|
A|2---2----23--2----2---2----23--2---------------------------3-3-0-0--|
E|--------------------------------------------------------------------|

  chorus "Oh yeah oh yeah"
G|---------------------------------------------|
D|----------------------------------------/7---|
A|----------------3-------------------3--------|
E|5-2120-5-2120-5---5-5-2120-5-2120-5---5------|

  "hey baby, oh baby,
   pretty baby..." riff         end
G|-----------------------------|----|
D|-----------------------------|----|
A|-----------3----------/7-/5--|0---|
E|53-5-2--535-5--53-5-2--------|----|

submitted by Achilles (blue_sincere@hotmail.com)
  development and support by
dmitry ivanov