rock
 
|tablatures   |lyrics   |discussion forums   |more tabs @ XGuitar.com

Led Zeppelin tabs

Black Country Woman bass tab

LED ZEPPELIN
Black Country Woman


Standard Tuning

  When bass comes in at approx. 02:10
G|----------------|----------------|----------------|----------------|
D|----------------|----------------|----------------|----------------|
A|----------------|----------------|----------------|----------------|
E|3---3---3---3---|3---3---3---3---|3---3---3---3---|3---3---3---3---|

G|----------------|----------------|----------------|----------------|
D|----------------|----------------|----------------|----------------|
A|----------------|----------------|----------------|----------------|
E|3---3---3---3---|3---3---3---3---|3---3---3---3---|3---3---3---3---|

G|----------------|----------------|----------------|----------------|
D|----------------|----------------|----------------|----------------|
A|3---3---3---3---|3---3---3---3---|3---3---3---3---|3---3---3---3---|
E|----------------|----------------|----------------|----------------|
  You didn't have to tell me that you love me so......

G|----------------|----------------|----------------|----------------|
D|----------------|----------------|----------------|----------------|
A|----------------|----------------|----------------|----------------|
E|3---3---3---3---|3---3---3---3---|3---3---3---3---|3---3---3---3---|

G|----------------|----------------|----------------|----------------|
D|----------------|----------------|----------------|----------------|
A|3---3---3---3---|3---3---3---3---|3---3---3---3---|3---3---3---3---|
E|----------------|----------------|----------------|----------------|

G|----------------|----------------|----------------|----------------|
D|----------------|----------------|----------------|----------------|
A|----------------|----------------|----------------|----------------|
E|3---3---3---3---|3---3---3---3---|3---3---3---3---|3---3---3---3---|

G|----------------|----------------|----------------|----------------|
D|----------------|----------------|----------------|----------------|
A|5---5---5---5---|3---3---3---3---|----------------|----------------|
E|----------------|----------------|3---3---3---3---|3---3---3---3---|
  Oh, but that's alright, I'd be the same way too........

G|----------------|----------------|----------------|----------------|
D|----------------|----------------|----------------|----------------|
A|----------------|----------------|----------------|----------------|
E|3---3---3---3---|3---3---3---3---|3---3---3---3---|3---3---3---3---|

G|----------------|----------------|----------------|----------------|
D|----------------|----------------|----------------|----------------|
A|----------------|----------------|----------------|----------------|
E|3---3---3---3---|3---3---3---3---|3---3---3---3---|3---3---3---3---|

G|----------------|----------------|----------------|----------------|
D|----------------|----------------|----------------|----------------|
A|3---3---3---3---|3---3---3---3---|3---3---3---3---|3---3---3---3---|
E|----------------|----------------|----------------|----------------|
  Now, youdidn't have to crucify me like you did........

G|----------------|----------------|----------------|----------------|
D|----------------|----------------|----------------|----------------|
A|----------------|----------------|----------------|----------------|
E|3---3---3---3---|3---3---3---3---|3---3---3---3---|3---3---3---3---|

G|----------------|----------------|----------------|----------------|
D|----------------|----------------|----------------|----------------|
A|3---3---3---3---|3---3---3---3---|3---3---3---3---|3---3---3---3---|
E|----------------|----------------|----------------|----------------|

G|----------------|----------------|----------------|----------------|
D|----------------|----------------|----------------|----------------|
A|----------------|----------------|----------------|----------------|
E|3---3---3---3---|3---3---3---3---|3---3---3---3---|3---3---3---3---|

G|----------------|----------------|----------------|----------------|
D|----------------|----------------|----------------|----------------|
A|5---5---5---5---|3---3---3---3---|----------------|----------------|
E|----------------|----------------|3---3---3---3---|3---3---3---3---|
  Oh, but that's alright, I know your sister too........

G|----------------|----------------|----------------|----------------|
D|----------------|----------------|----------------|----------------|
A|----------------|----------------|----------------|----------------|
E|3---3---3---3---|3---3---3---3---|3---3---3---3---|3---3---3---3---|

G|----------------|----------------|----------------|----------------|
D|----------------|----------------|----------------|----------------|
A|----------------|----------------|----------------|----------------|
E|3---3---3---3---|3---3---3---3---|3---3---3---3---|3---3---3---3---|

G|----------------|----------------|----------------|----------------|
D|----------------|----------------|----------------|----------------|
A|5---5---5---5---|3---3---3---3---|----------------|----------------|
E|----------------|----------------|3---------------|----------------|
                                    What's the matter with you, mama?
  development and support by
dmitry ivanov