rock
 
|tablatures   |lyrics   |discussion forums   |more tabs @ XGuitar.com

Kiss tabs

You're All that I Want guitar tab

YOU?RE ALL THAT I WANT (from the KISS CD "UNMASKED")
--------------------

Transcribed by Emil Ortenmark, emil@kissasylum.com

Standard tuning

Comments: This solo, which I believe to be Paul, is a little hard to hear
properly. I've notated it as best I could. The rhythm work is fairly
ordinary KISS stuff around this period, the most unusual thing happening
with the octaves in Rhy. Fig 7.


Key:
/    = slide up
\    = slide down
b    = bend (whole step)
b^   = bend (1/2 step)
b^^  = bend (1 1/2 steps)
pb   = pre-bend
r    = release-bend
t    = tap with righthand finger
h    = hammer-on
p    = pull-off
~    = Vibrato
*    = Natural Harmonic
#(#) = Trill
**   = Artificial Harmonic
x    = Dead notes (no pitch)
P.M. = Palm mute (- -> underneath indicates which notes)
(\)  = Dive w\bar
(/)  = Release w\bar
Tp   = Tap w\plectrum






Rhythm Fig. 1

E|-----------------------------------------------|
B|-----------------------------------------------|
G|--2------2--------2------2--------2----2-------|
D|--2------2--------2------2--------2----2-------|
A|--0------0--------0------0--------0----0-------|
E|------------3--0------------3--0---------------|




  End 1                   End 2
E|-----------------------|-----------------------|
B|-----0--------0--------|-----0--------0--------|
G|--------0--------0-----|--------0--------0-----|
D|-----------------------|-----------------------|
A|-----------------------|-----------------------|
E|--3--------2--------0--|--3--------2--------0--|
   Let ring - - - - - >    < - - - - 2x - - - - >



Rhythm Fig. 2

E|-----------------------------------------------|
B|-----------------------------------------------|
G|--9------9--------9------9--------9----9-------|
D|--7------7--------7------7--------7----7-------|
A|------------0--0------------0--0---------------|
E|-----------------------------------------------|


  End 1                   End 2
E|-----------------------|-----------------------|
B|-----------------------|-----------------------|
G|--7----7--7----7--4----|--7----7--7----7--4----|
D|--5-------4-------2----|--5-------4-------2----|
A|-----------------------|-----------------------|
E|-----------------------|-----------------------|
                           < - - - - 2x - - - >


Rhythm Fig. 3

E|-----------------------------------------------|
B|-----------------------------------------------|
G|--5------------------7-------------------------|
D|--5------------------7-------------------------|
A|--3------------------5-------------------------|
E|-----------------------------------------------|



Rhythm Fig. 4a

E|-----------------------------------------------|
B|-----------------------------------------------|
G|-----------------------------------------------|
D|--3------------------5-------------------------|
A|--3------------------5-------------------------|
E|--1------------------3-------------------------|



E|-----------------------------------------------|
B|-----------------------------------------------|
G|--------------------------7------7------7------|
D|--7--7--7--7--7--7--7--7--7------7------7------|
A|--5--5--5--5--5--5--5--5--5------5------5------|
E|-----------------------------------------------|


Rhythm Fig. 4b

E|-----------------------------------------------|
B|-----------------------------------------------|
G|-----------------------------------------------|
D|--3------------------5-------------------------|
A|--3------------------5-------------------------|
E|--1------------------3-------------------------|



E|-----------------------------------------------|
B|-----------------------------------------------|
G|--7--7--7--7--7--7--7--7-----------------------|
D|--7--7--7--7--7--7--7--7-----------------------|
A|--5--5--5--5--5--5--5--5-----------------------|
E|-----------------------------------------------|
   < - - - - 2x - - - - - >



Rhythm Fig. 5a

E|-----------------------------------------------|
B|-----------------------------------------------|
G|--5----5----5----5-----7----7----7----7--------|
D|--5----5----5----5-----7----7----7----7--------|
A|--3----3----3----3-----5----5----5----5--------|
E|-----------------------------------------------|



E|-----------------------------------------------|
B|-----------------------------------------------|
G|-----------------------------------------------|
D|--3----3----3----3-----5----5----5----5--------|
A|--3----3----3----3-----5----5----5----5--------|
E|--1----1----1----1-----3----3----3----3--------|



E|-----------------------------------------------|
B|-----------------------------------------------|
G|-----------------------------------------------|
D|--3----3----3----3-----2----2----2----2--------|
A|--3----3----3----3-----2----2----2----2--------|
E|--1----1----1----1-----0----0----0----0--------|



E|-----------------------------------------------|
B|---------------------------8------8------------|
G|---------------------------7------7------7-----|
D|--7--7--7--7--7--7--7--7---9------9------7-----|
A|--5--5--5--5--5--5--5--5-----------------5-----|
E|-----------------------------------------------|
    Light P.M. - - - - - >




Rhythm Fig. 5b

E|-----------------------------------------------|
B|-----------------------------------------------|
G|--5--------7---------10--------12--------------|
D|--5--------7---------10--------12--------------|
A|--3--------5---------8---------10--------------|
E|-----------------------------------------------|



E|-----------------------------------------------|
B|-----------------------------------------------|
G|--10--------9----------------------------------|
D|--10--------9---------7--7--7--7--7--7--7--7---|
A|--8---------7---------5--5--5--5--5--5--5--5---|
E|-----------------------------------------------|



E|-----------------------------------------------|
B|--8------8-------------------------------------|
G|--7------7------7------------------------------|
D|--9------9------7------------------------------|
A|----------------5------------------------------|
E|-----------------------------------------------|




Rhythm Fig. 6

E|-----------------------------------------------|
B|--9--9--9--10-----------9----x--9h10-----------|
G|--9--9--9--9------------9----x--9-9------------|
D|--9--9--9--11-----------9----x--9h11-----------|
A|-----------------------------------------------|
E|-----------------------------------------------|



E|-----------------------------------------------|
B|--7--7--7--8-----------15--15--15--14~---------|
G|--7--7--7--7-----------14--14--14--14~---------|
D|--7--7--7--9-----------16--16--16--14~---------|
A|-----------------------------------------------|
E|-----------------------------------------------|



E|-----------------------------------------------|
B|--9--9--9--10-----------9----x--9h10-----------|
G|--9--9--9--9------------9----x--9-9------------|
D|--9--9--9--11-----------9----x--9h11-----------|
A|-----------------------------------------------|
E|-----------------------------------------------|





                          End 1
E|-----------------------|-----------------------|
B|--8p-7----8p-7----7----|--9--9--9--10----------|
G|--7--7----7--7----7----|--9--9--9--9-----------|
D|--9p-7----9p-7----7----|--9--9--9--11----------|
A|-----------------------|-----------------------|
E|-----------------------|-----------------------|



Rhythm Fig. 7

E|-----------------------------------------------|
B|-----------------------------------------------|
G|-----------------------------------------------|
D|------------7-7---7-7--------7-----7-7---7-7---|
A|--0----0-------0-----0----------0-----0-----0--|
E|------------------------3p-0-------------------|
  < - - - - 3x - - - - >



                             End 1
E|--------------------------|--------------------|
B|--------------------------|--------------------|
G|--------------------------|--------------------|
D|------------7-7----7-7----|--7-7----7-7----7\--|
A|--0----0--------0------0--|------0------0------|
E|--------------------------|--------------------|
   < - - - - - 3x - - - - >


Rhythm Fig. 8a

E|-----------------------------------------------|
B|--3-------------------1--------3---------------|
G|--0--------4----------0--------2---------------|
D|--0--------4----------x--------0---------------|
A|--x--------2----------3------------------------|
E|--3--------------------------------------------|



E|-----------0----------------------0------------|
B|--------1---------1------------3---------3-----|
G|-----0----------------------0------------------|
D|-----------------------------------------------|
A|--3----------------------2---------------------|
E|-----------------------------------------------|
    Let ring - - - - - - - - - - - - - - - - >


E|-----------------------------------------------|
B|-----------------------------------------------|
G|--7--7--7--7--7--7--7--7--7--7--7--7--7--------|
D|--7--7--7--7--7--7--7--7--7--7--7--7--7--------|
A|--5--5--5--5--5--5--5--5--5--5--5--5--5--------|
E|-----------------------------------------------|



Rhythm Fig. 8b

E|------3----------2-----0----0-----2--3--2-0----|
B|--3------3----------3--1-------1--3---------3--|
G|--0---------4----------0----------2------------|
D|--0---------4----------x----------0------------|
A|--x---------2----------3-----------------------|
E|--3--------------------------------------------|
   Let ring - - - - - - - - - - - - - - - - - - >



E|-----0-----------------------------------------|
B|--1-------1-----------3-----7--7--7--7--7------|
G|--0-----0---0-------0----0--7--7--7--7--7------|
D|--x---------------0---------7--7--7--7--7------|
A|--3------------2------------5--5--5--5--5------|
E|-----------------------------------------------|
                              < - 3x - >


Solo

E|--0---0---0---0---0---0---0---0-----0---0---0---0---0---0---0---0--|
B|--14--14--14--14--14--14--14--14----14--14--14--12--12--12--10--10-|
G|-------------------------------------------------------------------|
D|-------------------------------------------------------------------|
A|-------------------------------------------------------------------|
E|-------------------------------------------------------------------|
   Light P.M. - - - - - - - - - >



E|--0--0--0---0---0--------------------------------------------------|
B|--8--8--10--10--10/-12--12/-14--14~-----15b----r12--14~-----14-----|
G|-------------------------------------------------------------------|
D|-------------------------------------------------------------------|
A|-------------------------------------------------------------------|
E|-------------------------------------------------------------------|



E|-----------------------17----------17---------17-------17----------|
B|--------------12--15b------15~--------15~--------15~------15~------|
G|--------12h14------------------------------------------------------|
D|--12h14------------------------------------------------------------|
A|-------------------------------------------------------------------|
E|-------------------------------------------------------------------|



E|--17/-19~----21---19----21b^--r21-21b^---r21~----------------------|
B|-------------------------------------------------------------------|
G|-------------------------------------------------------------------|
D|-------------------------------------------------------------------|
A|-------------------------------------------------------------------|
E|-------------------------------------------------------------------|
                         Pick only once - - - >



Harmony

E|--0---0---0---0---0---0---0---0-----0---0---0---0--0--0--0--0------|
B|--10--10--10--10--10--10--10--10----10--10--10--8--8--8--7--7------|
G|-------------------------------------------------------------------|
D|-------------------------------------------------------------------|
A|-------------------------------------------------------------------|
E|-------------------------------------------------------------------|
   Light P.M. - - - - - - - - - >



E|--0--0--0--0--0-----0----------------------------------------------|
B|--5--5--7--7--7/-8--8/-10--10~-----12b----r12--10~-----------------|
G|-------------------------------------------------------------------|
D|-------------------------------------------------------------------|
A|-------------------------------------------------------------------|
E|-------------------------------------------------------------------|
  development and support by
dmitry ivanov