rock
 
|tablatures   |lyrics   |discussion forums   |more tabs @ XGuitar.com

Kiss tabs

You Love Me To Hate You guitar tab

YOU LOVE ME TO HATE YOU (from the KISS CD "HOT IN THE SHADE")
--------------------

Transcribed by Emil Ortenmark, emil@kissasylum.com

Standard tuning

Comments: Pretty straight-forward this even if there are a thousand parts.
For Rhy. Fig 7 grab onto the C at the 10th fret with your 2nd finger and
keep it there. If you?re lazy you can substitute the C for an open G-string.
It sounds pretty much the same. The octave divider is set an otave above
for the first half of the solo. If you?re playing this by yourself you might
want to play the harmony part instead of the solo when it comes to that. It?s
hard to tell which guitar plays what so I?ve notated it like this.


Key:
/    = slide up
\    = slide down
b    = bend (whole step)
b^   = bend (1/2 step)
b^^  = bend (1 1/2 steps)
pb   = pre-bend
r    = release-bend
t    = tap with righthand finger
h    = hammer-on
p    = pull-off
~    = Vibrato
*    = Natural Harmonic
#(#) = Trill
**   = Artificial Harmonic
x    = Dead notes (no pitch)
P.M. = Palm mute (- -> underneath indicates which notes)
(\)  = Dive w\bar
(/)  = Release w\bar
Tp   = Tap w\plectrum



Rhythm Fig. 1

E|-----------------------------------------------|
B|-----------------------------------------------|
G|--5--------------------------------------------|
D|--5------6--------8----------------------------|
A|--3------6--------8----------------------------|
E|---------4--------6----------------------------|



Rhythm Fig. 2

E|-------------------------------------------------|
B|-------------------------------------------------|
G|--------5~---------7~-----------8~---------10~---|
D|--------5~---------7~-----------8~---------10~---|
A|--3--3-------5--5---------6--6-------8--8--------|
E|-------------------------------------------------|
    P.M.       P.M.         P.M.       P.M.


Rhythm Fig. 3

E|-------------------------------------------------|
B|-------------------------------------------------|
G|--------5~---------7~-----------8~---------10~---|
D|--------5~---------7~-----------8~---------10~---|
A|--3--3-------5--5---------6--6-------8--8--------|
E|-------------------------------------------------|
    P.M.       P.M.         P.M.       P.M.


E|-------------------------------------------------|
B|-------------------------------------------------|
G|-------------------3~----------------------------|
D|--------5~---------3~----------1-----------------|
A|--------5~---1--1-----------1-----------3--------|
E|--3--3-------------------3--------1--3-----1--3--|
    P.M.       P.M.



Rhythm Fig. 4

E|-------------------------------------------------|
B|-------------------------------------------------|
G|-------------------------------------------------|
D|--3--------5---------6------8--------------------|
A|--3--------5---------6------8--------------------|
E|--1--------3---------4------6--------------------|


Rhythm Fig. 5

E|-------------------------------------------------|
B|-------------------------------------------------|
G|-------------------------------------------------|
D|--5--5--5--5--5--5--5--5--5--5--5--5--5--5--5--5-|
A|--5--5--5--5--5--5--5--5--5--5--5--5--5--5--5--5-|
E|--3--3--3--3--3--3--3--3--3--3--3--3--3--3--3--3-|


Rhythm Fig. 6

E|-------------------------------------------------|
B|--------------------3----------------------------|
G|--2----2------------0----------------------------|
D|--2----2----3--3----0----------------------------|
A|--0----0----3--3----x----------------------------|
E|------------1--1----3----------------------------|


Rhythm Fig. 7

E|-------------------------------------------------|
B|------8-----------8------11-----8-----------8----|
G|-----------10------------------------10-------10-|
D|---10---10----10----10------10----10----10-------|
A|-------------------------------------------------|
E|-------------------------------------------------|
  < - - - - - - - - - - - 2x - - - - - - - - - - - >


E|-------------------------------------------------|
B|--------8-----------8----------------------------|
G|-10-----------10-------10~-----------------------|
D|----10----10-----10------------------------------|
A|-------------------------------------------------|
E|-------------------------------------------------|


Riff 1

E|-------------------------------------------------|
B|-------------------------------------------------|
G|------------------3~-----------------------------|
D|-------------------------------------------------|
A|--3~------5~-------------------------------------|
E|-------------------------------------------------|


Riff 2

E|---------8---------------------------------------|
B|--11b------11p8----------------------------------|
G|----------------10p8---10b-10--------------------|
D|---------------------10---------10p8-------------|
A|-------------------------------------10-9-8-8--8-|
E|-------------------------------------------------|


Riff 3

E|-------------------------------------------------|
B|--------8----------8-----------------------------|
G|--------------10------10~------------------------|
D|-----10----10----10------------------------------|
A|-------------------------------------------------|
E|-------------------------------------------------|


Solo

E|------------------------------------------------------------------------|
B|------------------------------------------------------------------------|
G|----------------------8--8----------------------------------------------|
D|-----10---10---8--10--------10p8-10-----8-------------8---8-------------|
A|-----------------------------------------------10--8-----------10(\)~---|
E|------------------------------------------------------------------------|
   With octave divider


E|------------------------------------------------------------------------|
B|------------------------------------------------------------------------|
G|---------------------------------------------8--10--10b10p8--------8----|
D|-------------------------10------10~-------------------------10---------|
A|---------------------10------10-----------------------------------------|
E|------------------------------------------------------------------------|



E|----11b---------8------8-------8----------------------------------------|
B|------------------8h11---11~-----8-11p8---------------------------------|
G|----------------------------------------11-10-8----10----8h10-----------|
D|------------------------------------------------10----10----------------|
A|------------------------------------------------------------------------|
E|------------------------------------------------------------------------|
  Octave divider off



E|-------------------------------------------------------------8(~)-------|
B|------------------------------------------------------------------------|
G|------------7b-r7p-7-5~-------------3--3--5~----------------------------|
D|------------------------------------------------------------------------|
A|------------------------------------------------------------------------|
E|------------------------------------------------------------------------|



E|--10--11--10--11--10--11--10--11--10--10--10--10--10--10--10--12--------|
B|------------------------------------------------------------------------|
G|------------------------------------------------------------------------|
D|------------------------------------------------------------------------|
A|------------------------------------------------------------------------|
E|------------------------------------------------------------------------|



E|------12--12--12--12--12--10--------------------------------------------|
B|----------------------------------------13--12--10----------------12~---|
G|------------------------------------------------------------------------|
D|------------------------------------------------------------------------|
A|------------------------------------------------------------------------|
E|------------------------------------------------------------------------|



E|------------17--15--17------------------19--------------20--19--20------|
B|------------------------------------------------------------------------|
G|------------------------------------------------------------------------|
D|------------------------------------------------------------------------|
A|------------------------------------------------------------------------|
E|------------------------------------------------------------------------|



E|------20--20--20--22----22--------22--22--22--22--22--------------------|
B|------------------------------------------------------------------------|
G|------------------------------------------------------------------------|
D|------------------------------------------------------------------------|
A|------------------------------------------------------------------------|
E|------------------------------------------------------------------------|


Harmony

E|----------------------------------10--------------12--10--12------------|
B|------------------------------------------------------------------------|
G|------------------------------------------------------------------------|
D|------------------------------------------------------------------------|
A|------------------------------------------------------------------------|
E|------------------------------------------------------------------------|



E|------12--12--12--13--15--13------13--13--13--13--13--15----------------|
B|------------------------------------------------------------------------|
G|------------------------------------------------------------------------|
D|------------------------------------------------------------------------|
A|------------------------------------------------------------------------|
E|------------------------------------------------------------------------|
  development and support by
dmitry ivanov