rock
 
|tablatures   |lyrics   |discussion forums   |more tabs @ XGuitar.com

Kiss tabs

You Love Me To Hate You bass tab

YOU LOVE ME TO HATE YOU (from the KISS CD "HOT IN THE SHADE")
--------------------

Transcribed by Emil Ortenmark, emil@kissasylum.com

Standard tuning

Comments: Simple bassline. I like the G that functions as a kind of approach
note during Rhy. Fig . Gives the line a sort of breathing quality. The very
few variations, and very sublte ones they are, lead me to believe that this
might be Paul or Bruce (or any other token bass-player hanging around the
studio). The attack is kind of soft and lacking the characteristic high-end
so I'm guessing this was played finger-style.


Key:
/    = slide up
\    = slide down
b    = bend (whole step)
b^   = bend (1/2 step)
b^^  = bend (1 1/2 steps)
pb   = pre-bend
r    = release-bend
t    = tap with righthand finger
h    = hammer-on
p    = pull-off
~    = Vibrato
*    = Natural Harmonic
#(#) = Trill
**   = Artificial Harmonic
x    = Dead notes (no pitch)
P.M. = Palm mute (- -> underneath indicates which notes)
(\)  = Dive w\bar
(/)  = Release w\bar
Tp   = Tap w\plectrum






Rhythm Fig. 1a

G|----------------------------------------------------|
D|----------------------------------------------------|
A|--3---------------1---------------------------------|
E|---------4------------------------------------------|




Rhythm Fig. 1b

G|----------------------------------------------------|
D|----------------------------------------------------|
A|--3---------------1-------------------------1-------|
E|---------4-------------------------------3----------|



Rhythm Fig. 2

G|----------------------------------------------------|
D|--------------------------------------------3-------|
A|--3--3--3-----5--5--5-----6--6--6-------------------|
E|-----------3-----------3-----------3--1--1-----3----|



Rhythm Fig. 3

G|----------------------------------------------------|
D|----------------------------------------------------|
A|--3--3--3-----5--5--5-----6--6--6-------------------|
E|-----------3-----------3-----------3--1--1--1--1----|



G|----------------------------------------------------|
D|--------------------------------1-------------------|
A|--------------1--1--1--1-----1-----------3----------|
E|--3--3--3--3--------------3--------1--3-----1--3----|



Rhythm Fig. 4a

G|----------------------------------------------------|
D|----------------------------------------------------|
A|----------------------------------------------------|
E|--1--1--1--1--3--3--3--3--4--4--4--6--6--6--6-------|



Rhythm Fig. 4b

G|----------------------------------------------------|
D|----------------------------------------------------|
A|-----------------------------------------6p-5--8----|
E|--1--1--1--1--3--3--3--3--4--4--4--6--6-------------|



Rhythm Fig. 5

G|----------------------------------------------------|
D|----------------------------------------------------|
A|----------------------------------------------------|
E|--3--3--3--3--3--3--3--3--3--3--3--3--3--3--3--3----|



Rhythm Fig. 6a

G|----------------------------------------------------|
D|----------------------------------------------------|
A|----------------------------------------------------|
E|--5----5--0--1--1----3------3----3--3--3------------|



Rhythm Fig. 6b

G|----------------------------------------------------|
D|----------------------------------------------------|
A|---------------------------------7--5---------------|
E|--5----5--0--1--1----3------3----------7------------|



Rhythm Fig. 6c

G|----------------------------------------------------|
D|----------------------------------------------------|
A|----------------------------------------------------|
E|--5----5--0--1--1----3------3----3--0--3------------|



Rhythm Fig. 6d

G|----------------------------------------------------|
D|----------------------------------------------------|
A|----------------------------------------------------|
E|--5----5--0--1--1----3------3----3--5/-7------------|



Rhythm Fig. 6e

G|----------------------------------------------------|
D|----------------------------------------------------|
A|------------------------------------5--7------------|
E|--5----5--0--1--1----3------3----3------------------|



Rhythm Fig. 7

G|----------------------------------------------------|
D|----------------------------------------------------|
A|--3----3------------1------1----1-----1-------------|
E|------------4--4-------------------3----------------|
  development and support by
dmitry ivanov