rock
 
|tablatures   |lyrics   |discussion forums   |more tabs @ XGuitar.com

Kiss tabs

Wouldn't You Like to Know Me? bass tab

WOULDN'T YOU LIKE TO KNOW ME? (from the KISS CD "PAUL STANLEY")
--------------------

Transcribed by Emil Ortenmark, emil@kissasylum.com

Tuned down 1/2-step

Comments: Another fairly simple performance but it fits the song to a "tee".
It might look weird to have things that are virtually the same in different
positions but I think there is a slight loss in bass frequencies when notes
are played on the A-string here and that's why I've notated as I have.


Key:
/    = slide up
\    = slide down
b    = bend (whole step)
b^   = bend (1/2 step)
b^^  = bend (1 1/2 steps)
pb   = pre-bend
r    = release-bend
t    = tap with righthand finger
h    = hammer-on
p    = pull-off
~    = Vibrato
*    = Natural Harmonic
#(#) = Trill
**   = Artificial Harmonic
x    = Dead notes (no pitch)
P.M. = Palm mute (- -> underneath indicates which notes)
(\)  = Dive w\bar
(/)  = Release w\bar
Tp   = Tap w\plectrum


Rhythm Fig. 1

Gb|---------------------------------------------------|
Db|---------------------------------------------------|
Ab|--7--7--7--7--7--7--7--7---7--7--7--7--7--7--7-----|
Eb|------------------------------------------------5--|
   < - - - - - 3x - - - - - >


Gb|---------------------------------------------------|
Db|---------------------------------------------------|
Ab|---------------------------------------------------|
Eb|--5------------------------------------------------|



Rhythm Fig. 2

Gb|---------------------------------------------------|
Db|---------------------------------------------------|
Ab|--7----7-------------------------------------------|
Eb|------------7----7--5-----5--5----5--7--9--7-------|



Gb|---------------------------------------------------|
Db|---------------------------------------------------|
Ab|--7----7-------------------------------------------|
Eb|------------7----7--7-----9--9------7--7--5--------|



End 1

Gb|---------------------------------------------------|
Db|---------------------------------------------------|
Ab|---------------------------------------------------|
Eb|--5------5--5------5--5----------------------------|



End 2

Gb|---------------------------------------------------|
Db|-------------------------7--7----------------------|
Ab|---------------------------------------------------|
Eb|--5------5--5------5---------------7--9--7---------|




End 3

Gb|---------------------------------------------------|
Db|---------------------------------------------------|
Ab|---------------------------------------------------|
Eb|--5------5--5------5--5----7----9----7-------------|




Rhythm Fig. 3

Gb|---------------------------------------------------|
Db|---------------------------------------------------|
Ab|--7--7------7--7----2--2------2--2--2-----2--------|
Eb|---------------------------------------4-----------|



Gb|---------------------------------------------------|
Db|---------------------------------------------------|
Ab|--4------4--4----2--0--0------0--0--2--4--2--------|
Eb|---------------------------------------------------|



Gb|---------------------------------------------------|
Db|---------------------------------------------------|
Ab|--7----------------------------4--4----------------|
Eb|-----------7--7-------4----------------------------|



Gb|---------------------------------------------------|
Db|--7------7--6------6-------------------------------|
Ab|-----------------------9--------9----7-------------|
Eb|---------------------------------------------------|



Rhythm Fig. 4

Gb|---------------------------------------------------|
Db|------------9-----------------7-------7------------|
Ab|-----------------------------------9---------------|
Eb|--7--7---------------------------------------------|



Gb|---------------------------------------------------|
Db|--9----9---------9----------9----7-------7---------|
Ab|--------------------------------------9------------|
Eb|------------7----------7---------------------------|
   < - - - - - - - - - 3x - - - - - - - - - - >


Gb|---------------------------------------------------|
Db|--9----9---------9-----------9----9----------------|
Ab|---------------------------------------------------|
Eb|------------7----------7--7------------------------|



Rhythm Fig. 5

Gb|---------------------------------------------------|
Db|----------------------------------7--7-------------|
Ab|---------------------------------------------------|
Eb|--------------12\----5-----------------------------|
  development and support by
dmitry ivanov