rock
 
|tablatures   |lyrics   |discussion forums   |more tabs @ XGuitar.com

Kiss tabs

Who Wants To Be Lonely bass tab

WHO WANTS TO BE LONELY (from the KISS CD "ASYLUM")
--------------------

Transcribed by Emil Ortenmark, emil@kissasylum.com

Standard tuning


Key:
/    = slide up
\    = slide down
b    = bend (whole step)
b^   = bend (1/2 step)
b^^  = bend (1 1/2 steps)
pb   = pre-bend
r    = release-bend
t    = tap with righthand finger
h    = hammer-on
p    = pull-off
~    = Vibrato
*    = Natural Harmonic
#(#) = Trill
**   = Artificial Harmonic
x    = Dead notes (no pitch)
P.M. = Palm mute (- -> underneath indicates which notes)
(\)  = Dive w\bar
(/)  = Release w\bar
Tp   = Tap w\plectrum





Rhythm Fig. 1

G|---------------------------------------------------------|
D|---------------------------------------------------------|
A|---------------------------------------------------------|
E|--0--0-0-0-0--0-0--0-0-0---------------------------------|



Rhythm Fig. 2

G|---------------------------------------------------------|
D|---------------------------------------------------------|
A|--------------------------5h7----------------------------|
E|--0--0-0-0-0--0-0--0-0-0---------------------------------|



Rhythm Fig. 3

G|---------------------------------------------------------|
D|---------------------------------------------------------|
A|-----------------------7---------------------------------|
E|--0--0-0-0-0--0-0--0-0-----------------------------------|



Rhythm Fig. 4

G|---------------------------------------------------------|
D|---------------------------------------------------------|
A|-----------------------5---------------------------------|
E|--0--0-0-0-0--0-0--0-0-----------------------------------|



Rhythm Fig. 5

G|---------------------------------------------------------|
D|---------------------------------------------------------|
A|--3--3-3-3-3--3-3--3-3-3-----3--3-3-3-3--3-3--3-3-3------|
E|--------------------------3------------------------------|



Rhythm Fig. 6

G|---------------------------------------------------------|
D|---------------------------------------------------------|
A|--3--3-3-3-3--3-3--3-3-3-----3--3-3-3-3--3-3--3-3-3--5h7-|
E|--------------------------3------------------------------|



Rhythm Fig. 7

G|---------------------------------------------------------|
D|---------------------------------------------------------|
A|--3--3-3-3-3--3-3--------0--3--3-3-3-3--3-3-----3--------|
E|-------------------0--3----------------------3-----3-----|



G|---------------------------------------------------------|
D|---------------------------------------------------------|
A|--5--5-5-5-5--5-5--5-5-5----5--5-5-5-5--5-5--5-5-5/------|
E|---------------------------------------------------------|



Rhythm Fig. 8

G|---------------------------------------------------------|
D|---------------------------------------------------------|
A|--7~------------------7~-----------------------7\--------|
E|-----0-0--0--0-0--0-0------0--0-0--0--0-0--0-0-----------|



Rhythm Fig. 9

G|---------------------------------------------------------|
D|---------------------------------------------------------|
A|--7~------------------7~-----------------------7~--------|
E|-----0-0--0--0-0--0-0------0--0-0--0--0-0--0-0-----------|



Rhythm Fig. 10

G|---------------------------------------------------------|
D|---------------------------------------------------------|
A|--3--3-3--3--3-3/-5--5----3--3-3--3--3/7----5------------|
E|---------------------------------------------------------|



Rhythm Fig. 11

G|---------------------------------------------------------|
D|---------------------------------------------------------|
A|--3--3-3--3--3-3--3-3-3-----3--3-3--3--3-3--3-3-3--------|
E|-------------------------3-------------------------3-----|



G|---------------------------------------------------------|
D|---------------------------------------------------------|
A|--5--5-5--5--5-5--5-5-5-----5--5-5--5--5-5--------0------|
E|-------------------------5------------------2--3---------|



Rhythm Fig. 12

G|---------------------------------------------------------|
D|---------------------------------------------------------|
A|--3--3-3--3--3-3--3-3-3-----5--5-5--5--5-5--5-5-5--------|
E|-------------------------3-------------------------5-----|
   < - - - - 2x - - - - - - >< - - - - 2x - - - - - - >


Rhythm Fig. 13

G|---------------------------------------------------------|
D|---------------------------------------------------------|
A|------------7-----------3---3--3--3/5--------------------|
E|--0---0--0----0------------------------------------------|
   < - - - 2x - - - >   < - - - 2x - - - >
  development and support by
dmitry ivanov