rock
 
|tablatures   |lyrics   |discussion forums   |more tabs @ XGuitar.com

Kiss tabs

What Makes The World Go 'Round bass tab

WHAT MAKES THE WORLD GO ?ROUND (from the KISS CD "UNMASKED")
--------------------

Transcribed by Emil Ortenmark, emil@kissasylum.com

Standard tuning

Comment: Lots of stuff going on here. Pretty much the same progression
througout the verse, but the bass changes the mood by going to a pumping
eight-note rhythm halfway through. Lots of variations in the final chorus
too.

Key:
/    = slide up
\    = slide down
b    = bend (whole step)
b^   = bend (1/2 step)
b^^  = bend (1 1/2 steps)
pb   = pre-bend
r    = release-bend
t    = tap with righthand finger
h    = hammer-on
p    = pull-off
~    = Vibrato
*    = Natural Harmonic
#(#) = Trill
**   = Artificial Harmonic
x    = Dead notes (no pitch)
P.M. = Palm mute (- -> underneath indicates which notes)
(\)  = Dive w\bar
(/)  = Release w\bar
Tp   = Tap w\plectrum



Rhythm Fig. 1

G|--------------------------------------------------|
D|--------------------------------------------------|
A|---------------0--3--3--3--2----0-----------------|
E|------------3----------------------0--1--3--------|



G|--------------------------------------------------|
D|--------------------------------------------------|
A|---------------------1----1----------------3------|
E|----3--1----0--1--3----------1----1--1--3---------|



G|--------------------------------------------------|
D|--------------------------------------------------|
A|----3-------------0--3----3--2----0---------------|
E|-------3----3--3---------------------0--1--3------|



G|--------------------------------------------------|
D|--------------------------------------------------|
A|---------------------1----1----------------3------|
E|----3--1----0--1--3----------1----1--1--3---------|



G|--------------------------------------------------|
D|--------------------------------------------------|
A|----3-------------0-------------------------------|
E|-------3----3--3----------------------------------|



Rhythm Fig. 2

G|--------------------------------------------------|
D|--------------------------------------------------|
A|--3----3--2----0-----------------------------1----|
E|-----------------0--1--3----3--1----0--1--3-------|




G|--------------------------------------------------|
D|--------------------------------------------------|
A|----1----------------3----3-------------0--3------|
E|-------1----1--1--3----------3----3--3------------|




G|--------------------------------------------------|
D|--------------------------------------------------|
A|----3--2----0------------------------------5------|
E|---------------0--1--3----3--1----0--1--3---------|




G|--------------------------------------------------|
D|------------------------------------3--5--3-------|
A|--5--5--5--5--5--0--2--3----3----------------3----|
E|-------------------------------3------------------|



G|--------------------------------------------------|
D|--------------------------------------------------|
A|--3--3--2--2--0--------------------------------5--|
E|-----------------0--1--3--3--3--1--1--0--1--3-----|



G|--------------------------------------------------|
D|--------------------3--5--5--5--------------------|
A|--5--5--5--5--5--5--------------------------0--3--|
E|--------------------------------3--3--3--3--------|



G|--------------------------------------------------|
D|--------------------------------------------------|
A|--3--3--2--2--0--------------------------------5--|
E|-----------------0--1--3--3--3--1--1--0--1--3-----|



Rhythm Fig. 3a

G|--------------------------------------------------|
D|--------------------------------------------------|
A|--5--5--5--5--5--7----8--------8------------------|
E|--------------------------------------------------|



G|--------------------------------------------------|
D|--------------------------------------------------|
A|--7----7----7----7----7--5----3----2--2-----------|
E|--------------------------------------------------|


Rhythm Fig. 3b

G|--------------------------------------------------|
D|--------------------------------------------------|
A|--5--5--5--5--5--7----8--------8------------------|
E|--------------------------------------------------|



G|--------------------------------------------------|
D|--------------------------------------------------|
A|--7---------7---------7--5----3----2--2-----------|
E|-------0---------0--------------------------------|



Rhythm Fig. 4a

G|--------------------------------------------------|
D|--------------------------------------------------|
A|--0--0--0--0--0--0--0--0--0--0--0--0--0--0--0--0--|
E|--------------------------------------------------|



G|--------------------------------------------------|
D|--------------------------------------------------|
A|--5--5--5--5--5--7----8----8--8--8--8/-10--10\----|
E|--------------------------------------------------|



Rhythm Fig. 4b

G|--------------------------------------------------|
D|--------------------------------------------------|
A|--0--0--0--0--0-----------0--0--0--0--0-----------|
E|-----------------0--3--0-----------------0--3--0--|



G|--------------------------------------------------|
D|--------------------------------------------------|
A|--5--5--5--5--5--7----8----8--8--8--8/-10--10\----|
E|--------------------------------------------------|


Rhythm Fig. 4c

G|--------------------------------------------------|
D|--------------------------------------------------|
A|--0--0--0--0--0-----------0--0--0--0--0-----------|
E|-----------------0--3--0-----------------0--3--0--|



G|--------------------------------------------------|
D|--------------------------------------------------|
A|--5--5--5--5--5--7----8----8--8--8--10------------|
E|----------------------------------------0--3--0---|


Rhythm Fig. 5a

G|--------------------------------------------------|
D|--------------------------------------------------|
A|--0--0--0--0--0--0--0--0--0--0--0--0--0--0--0--0--|
E|--------------------------------------------------|



G|--------------------------------------------------|
D|--------------------------------------------------|
A|--5--5--5--5--5--7----8----8--7----8/-10\---------|
E|--------------------------------------------------|


Rhythm Fig. 5b

G|--------------------------------------------------|
D|--------------------------------------------------|
A|--0--0--0--0--0-----------0--0--0--0--0-----------|
E|-----------------0--3--0-----------------0--3--0--|



G|--------------------------------------------------|
D|--------------------------------------------------|
A|--5--5--5--5--5--7----8----8--7----8/-10\---------|
E|--------------------------------------------------|



Rhythm Fig. 5c

G|--------------------------------------------------|
D|--------------------------------------------------|
A|--0--0--0--0--0-----------0--0--0-----------------|
E|-----------------0--3--0-----------0--3--0--3--0--|



G|--------------------------------------------------|
D|--------------------------------------------------|
A|--5--5--5--5--5--7----8----8--7----8/-10\---------|
E|--------------------------------------------------|


Rhythm Fig. 6

G|--------------------------------------------------|
D|--------------------------------------------------|
A|-----------------------3--3----3----3--3----------|
E|--1--1----1----1--1-------------------------------|



G|--------------------------------------------------|
D|--------------------------------------------------|
A|--------------------------------------------------|
E|--3--3----3----3--3----5--5----5----5--5----------|



G|--------------------------------------------------|
D|--------------------------------------------------|
A|-----------------------3--3----3----3--3----------|
E|--1--1----1----1--1-------------------------------|



G|--------------------------------------------------|
D|--------------------------------------------------|
A|--------------------------------------------------|
E|--3--3----3----3--3----5--5--5--5--5--5--5--5-----|
                         < - - - - 2x - - - - >

Rhythm Fig. 7

G|--------------------------------------------------|
D|--------------------------------------------------|
A|--------------------3--5\-------------------------|
E|--5\----------------------------1--1------3--3----|


Rhythm Fig. 8a

G|--------------------------------------------------|
D|--------------------------------------------------|
A|--0--0--0--0--0--0--0--0--0--0--0--0--0--0--0--0--|
E|--------------------------------------------------|



G|--------------------------------------------------|
D|--------------------------------------------------|
A|--5--5--5--5--5--5--5--5--5--5--5--5--5-----------|
E|-----------------------------------------0--3-----|



Rhythm Fig. 8b

G|--------------------------------------------------|
D|--------------------------------------------------|
A|--0--0--0--0--0--0--0--0--0--0--0--0--0--0--0--0--|
E|--------------------------------------------------|



G|--------------------------------------------------|
D|--------------------------------------------------|
A|--5--5--5--5--5--5--5--5--5--5--5--5--5-----------|
E|-----------------------------------------0--3--0--|



Rhythm Fig. 8c

G|--------------------------------------------------|
D|--------------------------------------------------|
A|--0--0--0--0--0--0--0--0--0--0--0--0--0--0--0--0--|
E|--------------------------------------------------|
  development and support by
dmitry ivanov