rock
 
|tablatures   |lyrics   |discussion forums   |more tabs @ XGuitar.com

Kiss tabs

Watchin' You guitar tab

Watchin' You by KISS
From the album Hotter Than Hell
--------------------------------------------------------------------



    rhythm 1
e:---------------------------------------------------------------------------|
B:---------------------------------------------------------------------------|
G:--------------3-----------------------3----------------------------3-------|
D:------------3---5~--5-3-------------3----5-3---------------------3---5~--5-|
A:--------3-5-------------5-------3-5----------5--3-1----------3-5-----------|
E:---3~-----------------------3~----------------------3-1-3~-----------------|




                                      rhythm 2                         repeat
e:---------------------------------------------------------------------------|
B:---------------------------------------------------------------------------|
G:---------------3-----------------------------------------------------------|
D:3------------3----5-3----------------5-3-5-------5-3-5-3------5-3-5-------5|
A:--5------3-5----------5--3-1-----5------------5------------5-----------5---|
E:-----3~----------------------3-1-3----------x-3------------3---------x-3---|


                                  
                                  
           "Livin' as ya do....."
e:-------|-----------------------|
B:-------|-----------------------|
G:-------|-------4--------4------|
D:-3-5-3-|-------5--------5------|
A:-------|---55555----55555------|
E:-------|---33333--xx33333------|
                 repeat



                                                               "You don't rea-
e:---------------------------------------------------------------------------|
B:-3~---5~-------------------------------------------------------------------|
G:-3~---5~-------------------------------------------------------5----5----5-|
D:-3~---5~----5-3-5-------5-3-5-3-----5-3-5-3------5-4-3---------5----5----3-|
A:-------------------------------------------------------5-4-3---3----3------|
E:----------3---------x-3----------3-----------------------------------------|




 -lly know..."
e:---------------------------------------------------------------------------|
B:--------------------------3------------------------------------------------|
G:-5---5--5-----------------3---7---7----7--7--7--7--------5--7b/7-5---------|
D:-3---5--5------------3/5------7---7----5--5--7--7----5/7-----------7---3~--|
A:-----3--3--------1---3/5------5---5----------5--5----------------------3~--|
E:-------------1/3-------------------------------------------------------1~--|





e:---------------------------------------------------------------------------|
B:---------------------3~-----3~----------3~-------------------------3~-----3|
G:---5--5--5-------3/5-3~--5--3~--5---3/5-3~--5------------------3/5-3~--5--3|
D:---3--3--3-------3/5-----5------5---3/5-----5--3---------------3/5-----5---|
A:-------------------------------------------------5-3-1-3-------------------|
E:---------------------------------------------------------3-----------------|


                                  
                                  

e:-------------------------------|
B:~----------3~------------------|
G:~--5---3/5-3~--5---------------|
D:---5---3/5-----5--3------------|
A:--------------------5-3-1-3-5--|
E:----------------------------3--|




   rhythm 2 variation w/rhythm 2                                      guitar 2
e:---------------------------------------------------------------------------|
B:---------------------------------------------------------------------------|
G:--------------------------------7-5-7-----0---7-5-7-5---------3-2-3----0---|
D:------5-3-5-------5-3-5-3-----------------0----------------------------0---|
A:---5-----------5------------5------------------------------5---------------|
E:---3-----------3------------3------------------------------3---------------|


                                       

  
e:------------------------------------|
B:------------------------------------|
G:3-2-3-2----0---3-2-3----0--3-2-3-2--|
D:-----------0------------0-----------|
A:------------------------------------|
E:------------------------------------|




     w/rhythm2
e:--------------15-------------15-------------15-------------15-----------15-|
B:-------15--15-15------15--15-15------15--15-15------15--15-15-------15--15-|
G:---15b(17)--------15b(17)--------15b(17)--------15b(17)---------15b(17)----|
D:---------------------------------------------------------------------------|
A:---------------------------------------------------------------------------|
E:---------------------------------------------------------------------------|





e:--------15---------15---------15---------15---------15---------15---------|
B:----15--15-----15--15-----15--15-----15--15-----15--15-----15--15-----15--|
G:17b(19)----17b(19)----17b(19)----17b(19)----17b(19)----17b(19)----17b(19)-|
D:--------------------------------------------------------------------------|
A:--------------------------------------------------------------------------|
E:--------------------------------------------------------------------------|





e:---------15-15-15-15-------15-15-15-15-------15-15-15-15-------------------|
B:---------15-15-15-15-------15-15-15-15-------15-15-15-15-----18b-18-15-----|
G:---15/17-------------15/17-------------15/17---------------------------18--|
D:---------------------------------------------------------------------------|
A:---------------------------------------------------------------------------|
E:---------------------------------------------------------------------------|


                                 
                                 

e:------------------------------|
B:------------------------------|
G:17-15-------------------------|
D:-----17-15--------------------|
A:----------17-16-15-13~-13--13-|
E:-------------------------15---|





e:---------15~-------15~-------15------15------------------------------------|
B:---------15~-------15~-------15------15------------------------------------|
G:---15/17-----15/17-----15/17---15/17------17b/17--15/17/15--14/15/14--12/14|
D:---------------------------------------------------------------------------|
A:---------------------------------------------------------------------------|
E:---------------------------------------------------------------------------|





e:-------------------------------------------------|------------------------|
B:----------------------------------------------0--|--5/6/5-----------------|
G:/12--10/12/10--9/10/9--7/9/7--5/7/5/--3/5/3/2/0--|--------5/7/5--3/5/3--0-|
D:-------------------------------------------------|------------------------|
A:-------------------------------------------------|------------------------|
E:-------------------------------------------------|------------------------|


                          
                          
  ending (both guitars)
e:------------------------|
B:---------------------(0)|
G:-(7~)(5~)(2~)--------(0)|
D:-------------(5~)(3~)(0)|
A:--7---5---7---5---3---5-|
E:--5---3---5---3---1---3-|


  development and support by
dmitry ivanov