rock
 
|tablatures   |lyrics   |discussion forums   |more tabs @ XGuitar.com

Kiss tabs

Watchin' You bass tab

WATCHIN' YOU (from the Kiss LP "Hotter Than Hell")
============

Bass tabs transcribed by Johan Linden (johan@kisstabs.com)

Eb Tuning

Fig. 1

Gb|------------------------------------------------------|
Db|-------------------------------3-5--3-----------------|
Ab|------------------------------------------------------|
Eb|---3-------------3------------------------------------|

Fig. 2

Gb|----------3--------------------3----------------------|
Db|--------3---5-5p^3-----------3---5-5p^3---------------|
Ab|---3h^5------------5----3h^5------------5\3-3p^1------|
Eb|-3--------------------3--------------------------3-1--|

Fig. 3

Gb|------------------------------------------------------|
Db|---------------------------------------5-3-5-3--------|
Ab|------------------------------------------------------|
Eb|--3----------3------------3----------3----------------|

Fig. 4

Gb|------------------------------------------------------|
Db|-----5-3-5--5---5-3-5-3-------------------------------|
Ab|------------------------------------------------------|
Eb|---3----------3---------------------------------------|

Fig. 5

Gb|------------------------------------------------------|
Db|----5-3-5-3-------------------------------------------|
Ab|------------------------------------------------------|
Eb|--3---------------------------------------------------|

Fig. 6

Gb|------------------------------------------------------|
Db|------------------------------------------------------|
Ab|---3--3-----1-3--3---0-2-3-5--5----3-5--5----5-7------|
Eb|----------3----------------------5---------7-----1----|

Gb|------------------------------------------------------|
Db|------------------------------------------------------|
Ab|------------------------------------------------------|
Eb|---1-1-1----------------------------------------------|

Fig. 7

Gb|---3----3-------3-------------------------------------|
Db|-5----5---5---5---5--3--------------------------------|
Ab|-----------------------5-3-1-3------------------------|
Eb|-------------------------------3----------------------|

Fig. 8

Gb|---3----3-------3-------------------------------------|
Db|-5----5---5---5---5--3-5--3---------------------------|
Ab|-----------------------------5--3--1------------------|
Eb|---------------------------------------------3--------|


WATCHIN' YOU - Gene Simmons

[Fig. 1]
[Fig. 2] (2x)
[Fig. 3]
[Fig. 4] (2x)

[Fig. 4] (7x)
Livin' as you do and I'm watchin' you
And you don't really know a-just what to do

[Fig. 5]

[Fig. 6]
You don't really know
You don't really know
What to do
[Fig. 7] (2x)
[Fig. 3]
[Fig. 4] (2x)

[Fig. 4] (7x)
And I'm standin' here not quite aware
And I'm tryin' baby, tryin' not to stare

[Fig. 5]

[Fig. 6]
Ooh, 'cause everybody else is here
Yes, everybody else is here
Everybody else is here
Watchin' you
[Fig. 7] (2x)
[Fig. 1]
[Fig. 2] (3x)

[Fig. 3]

[Fig. 4] (13x) w/ [Solo]

[Fig. 5]

[Fig. 6]
Ooh, 'cause everybody else is here
Yes, everybody else is here
Everybody else is here
Watchin' us

[Fig. 7] (2x)
[Fig. 8]
  development and support by
dmitry ivanov