rock
 
|tablatures   |lyrics   |discussion forums   |more tabs @ XGuitar.com

Kiss tabs

War Machine guitar tab

War Machine (from the KISS-LP "Creatures of the Night")
-----------

transcribed by Rainer Montag (montag01@rbg.informatik.th-darmstadt.de)

Tune guitar 1/2 step down

Intro Riff:

D|-----------------------------------------|
A|-----------------------------------------|
E|--0--7----0--5----0--7----0--7--0--3--5--|

D|-----------------------------------------|
A|-----------------------------------------|
E|--0--7----0--5----0--7----0--7--0--3--5--|


Riff 1:

     A   G   E

E|---------------|
B|---------------|
G|---------------|
D|---7---5---2---|
A|---7---5---2---|
E|---5---3---0---|



Riff 2:

     E   G   A  A  G  A       A   G   B   G   E  E  G  E     E

E|--------------------------------------------------------------|
B|--------------------------------------------------------------|
G|--------------------------------------------------------------|
D|---2---5---7--7--5--7-------7---5---9---5---2--2--5--2-----2--|
A|---2---5---7--7--5--7-------7---5---9---5---2--2--5--2-----2--|
E|---0---3---5--5--3--5-------5---3---7---3---0--0--3--0-----0--|


Riff 3:

     E   G   A  A  G  A       A   G   A   G

E|-------------------------------------------|
B|-------------------------------------------|
G|-------------------------------------------|
D|---2---5---7--7--5--7-------7---5---7---5--|
A|---2---5---7--7--5--7-------7---5---7---5--|
E|---0---3---5--5--3--5-------5---3---5---3--|


Riff 3a:

     B  B  A  B  B  A  B  B  B   A   B

E|---------------------------------------|
B|---------------------------------------|
G|---------------------------------------|
D|---9--9--7--9--9--7--9--9--9---7---9---|
A|---9--9--7--9--9--7--9--9--9---7---9---|
E|---7--7--5--7--7--5--7--7--7---5---7---|


Riff 3b:

     B    B  A    A  G    G  F#   F#

E|-----------------------------------|
B|-----------------------------------|
G|-----------------------------------|
D|---9----9--7----7--5----5--4----4--|
A|---9----9--7----7--5----5--4----4--|
E|---7----9--5----5--3----3--2----2--|


Playing Order:

Intro 
Riff 1
Riff 2
Riff 3
Riff 3a
Riff 3
Riff 3b
Main

and so on....

The Solo starts something like this:

E|---------------14b--16b--18b------|
B|----------------------------------|
G|----------------------------------|
D|----------------------------------|
A|----------------------------------|
E|--12\-----------------------------|
       sl.down    1/2 bend

If you have any more ideas to the solo , please mail me your suggestions !!
  development and support by
dmitry ivanov