rock
 
|tablatures   |lyrics   |discussion forums   |more tabs @ XGuitar.com

Kiss tabs

War Machine bass tab

Kiss - War Machine


Bass

E||------------------------|-----------------------|------------------------|
B||------------------------|-----------------------|------------------------|
G||------------------------|-----------------------|------------------------|
D||------------------------|-----------------------|------------------------|
A||-----2-------0-------2--|-------2----------0----|-----2---------------0--|
E||--0-------0-------0-----|----0-----0--3---------|--0-------0--3----0-----|



-----------------------|------------------------|-----------------------|
-----------------------|------------------------|-----------------------|
-----------------------|------------------------|-----------------------|
-----------------------|------------------------|-----------------------|
-------0----------0----|-----2-------0-------2--|-------2----------0----|
----0-----0--3---------|--0-------0-------0-----|----0-----0--3---------|



------------------------|-----------------------|------------------------|
------------------------|-----------------------|------------------------|
------------------------|-----------------------|------------------------|
------------------------|-----------------------|------------------------|
-----2---------------0--|-------0----------0----|-----2-------0-------2--|
--0-------0--3----0-----|----0-----0--3---------|--0-------0-------0-----|



-----------------------|-------------------|--------------------|
-----------------------|-------------------|--------------------|
-----------------------|-------------------|--------------------|
------------------0----|-------------------|--------------------|
-------2---------------|-------------------|--------------------|
----0-----0--3---------|--0----------------|----------0----3----|



----------------------|---------------------|----------------------|
----------------------|---------------------|----------------------|
----------------------|---------------------|----------------------|
----------------------|---------------------|----------------------|
--0--0-----0----------|----0------0---------|----------------------|
--------3-------------|----------------3----|--0--0--3--0----------|



---------------------|----------------------|---------------------|
---------------------|----------------------|---------------------|
---------------------|----------------------|---------------------|
---------------------|----------------------|---------------------|
---------------------|--0--0-----0----------|----0------0---------|
----0------0----3----|--------3-------------|----------------3----|



-------------------------|--------------------|----------------------|
-------------------------|--------------------|----------------------|
-------------------------|--------------------|----------------------|
-------------------------|--------------------|----------------------|
--2--2--0--2----2--0--2--|--------------------|--0--0-----0----------|
-------------------------|----------0----3----|--------3-------------|



---------------------|----------------------|---------------------|
---------------------|----------------------|---------------------|
---------------------|----------------------|---------------------|
---------------------|----------------------|---------------------|
----0------0---------|----------------------|---------------------|
----------------3----|--0--0--3--0----------|----0------0----3----|



----------------------|---------------------|--------------------------|
----------------------|---------------------|--------------------------|
----------------------|---------------------|--------------------------|
----------------------|---------------------|--------------------------|
--0--0-----0----------|----0------0---------|--2--2--2--2--0--0--0--0--|
--------3-------------|----------------3----|--------------------------|



--------------------------|------------------------|-----------------------|
--------------------------|------------------------|-----------------------|
--------------------------|------------------------|-----------------------|
--------------------------|------------------------|-----------------------|
--------------------------|-----2-------0-------2--|-------2----------0----|
--3--3--3--3--2--2--2--2--|--0-------0-------0-----|----0-----0--3---------|



------------------------|-----------------------|------------------------|
------------------------|-----------------------|------------------------|
------------------------|-----------------------|------------------------|
------------------------|-----------------------|------------------------|
-----2---------------0--|-------0----------0----|-----2-------0-------2--|
--0-------0--3----0-----|----0-----0--3---------|--0-------0-------0-----|



-----------------------|-------------------|--------------------|
-----------------------|-------------------|--------------------|
-----------------------|-------------------|--------------------|
------------------0----|-------------------|--------------------|
-------2---------------|-------------------|--------------------|
----0-----0--3---------|--0----------------|----------0----3----|



----------------------|---------------------|----------------------|
----------------------|---------------------|----------------------|
----------------------|---------------------|----------------------|
----------------------|---------------------|----------------------|
--0--0-----0----------|----0------0---------|----------------------|
--------3-------------|----------------3----|--0--0--3--0----------|



---------------------|----------------------|---------------------|
---------------------|----------------------|---------------------|
---------------------|----------------------|---------------------|
---------------------|----------------------|---------------------|
---------------------|--0--0-----0----------|----0------0---------|
----0------0----3----|--------3-------------|----------------3----|



-------------------------|--------------------|----------------------|
-------------------------|--------------------|----------------------|
-------------------------|--------------------|----------------------|
-------------------------|--------------------|----------------------|
--2--2--0--2----2--0--2--|--------------------|--0--0-----0----------|
-------------------------|----------0----3----|--------3-------------|



---------------------|----------------------|---------------------|
---------------------|----------------------|---------------------|
---------------------|----------------------|---------------------|
---------------------|----------------------|---------------------|
----0------0---------|----------------------|---------------------|
----------------3----|--0--0--3--0----------|----0------0----3----|



----------------------|---------------------|--------------------------|
----------------------|---------------------|--------------------------|
----------------------|---------------------|--------------------------|
----------------------|---------------------|--------------------------|
--0--0-----0----------|----0------0---------|--2--2--2--2--0--0--0--0--|
--------3-------------|----------------3----|--------------------------|



--------------------------|------------------------|-----------------------|
--------------------------|------------------------|-----------------------|
--------------------------|------------------------|-----------------------|
--------------------------|------------------------|-----------------------|
--------------------------|-----2-------0-------2--|-------2----------0----|
--3--3--3--3--2--2--2--2--|--0-------0-------0-----|----0-----0--3---------|



------------------------|-----------------------|------------------------|
------------------------|-----------------------|------------------------|
------------------------|-----------------------|------------------------|
------------------------|-----------------------|------------------------|
-----2---------------0--|-------0----------0----|-----2-------0-------2--|
--0-------0--3----0-----|----0-----0--3---------|--0-------0-------0-----|



-----------------------|------------------------|-----------------------|
-----------------------|------------------------|-----------------------|
-----------------------|------------------------|-----------------------|
-----------------------|------------------------|-----------------------|
-------2---------------|-----2---------------0--|-------0----------0----|
----0-----0--2----4----|--0-------0--3----0-----|----0-----0--3---------|



------------------------|-----------------------|------------------------|
------------------------|-----------------------|------------------------|
------------------------|-----------------------|------------------------|
------------------------|-----------------------|------------------------|
-----2-------0-------2--|-------2---------------|-----2---------------0--|
--0-------0-------0-----|----0-----0--2----4----|--0-------0--3----0-----|



-----------------------|------------------------|-----------------------|
-----------------------|------------------------|-----------------------|
-----------------------|------------------------|-----------------------|
-----------------------|------------------------|-----------------------|
-------0----------0----|-----2-------0-------2--|-------2---------------|
----0-----0--3---------|--0-------0-------0-----|----0-----0--2----4----|



------------------------|-----------------------|-------------------|
------------------------|-----------------------|-------------------|
------------------------|-----------------------|-------------------|
------------------------|-----------------------|-------------------|
-----2---------------0--|-------0----------0----|-------------------|
--0-------0--3----0-----|----0-----0--3---------|--0----------------|



------------------|-------------------|------------------|-------------------|
------------------|-------------------|------------------|-------------------|
------------------|-------------------|------------------|-------------------|
------------------|-------------------|------------------|-------------------|
------------------|--0----------------|------------------|-------------------|
------------------|-------------------|------------------|--3----------------|



------------------|-------------------|-------------------|
------------------|-------------------|-------------------|
------------------|-------------------|-------------------|
------------------|-------------------|-------------------|
------------------|-------------------|-------------------|
------------------|--1----------------|--0----------------|



---------------------|---------------------|------------------|
---------------------|---------------------|------------------|
---------------------|---------------------|------------------|
---------------------|---------------------|------------------|
--5-------------7/---|----0------8------2--|------------------|
---------3-----------|---------------------|------------------|



------------------|------------------------|-----------------------|
------------------|------------------------|-----------------------|
------------------|------------------------|-----------------------|
------------------|------------------------|-----------------------|
------------------|-----2-------0-------2--|-------2----------0----|
------------------|--0-------0-------0-----|----0-----0--3---------|



------------------------|-----------------------|------------------------|
------------------------|-----------------------|------------------------|
------------------------|-----------------------|------------------------|
------------------------|-----------------------|------------------------|
-----2---------------0--|-------0----------0----|-----2-------0-------2--|
--0-------0--3----0-----|----0-----0--3---------|--0-------0-------0-----|



-----------------------|------------------------|-----------------------|
-----------------------|------------------------|-----------------------|
-----------------------|------------------------|-----------------------|
-----------------------|------------------------|-----------------------|
-------2----------0----|-----2---------------0--|-------0----------0----|
----0-----0--3---------|--0-------0--3----0-----|----0-----0--3---------|



------------------------|-----------------------|------------------------|
------------------------|-----------------------|------------------------|
------------------------|-----------------------|------------------------|
------------------------|-----------------------|------------------------|
-----2-------0-------2--|-------2----------0----|-----2---------------0--|
--0-------0-------0-----|----0-----0--3---------|--0-------0--3----0-----|



-----------------------|------------------------|-----------------------|
-----------------------|------------------------|-----------------------|
-----------------------|------------------------|-----------------------|
-----------------------|------------------------|-----------------------|
-------0----------0----|-----2-------0-------2--|-------2----------0----|
----0-----0--3---------|--0-------0-------0-----|----0-----0--3---------|



------------------------|-----------------------|------------------------|
------------------------|-----------------------|------------------------|
------------------------|-----------------------|------------------------|
------------------------|-----------------------|------------------------|
-----2---------------0--|-------0----------0----|-----2-------0-------2--|
--0-------0--3----0-----|----0-----0--3---------|--0-------0-------0-----|



-----------------------|------------------------|-----------------------|
-----------------------|------------------------|-----------------------|
-----------------------|------------------------|-----------------------|
-----------------------|------------------------|-----------------------|
-------2----------0----|-----2---------------0--|-------0----------0----|
----0-----0--3---------|--0-------0--3----0-----|----0-----0--3---------|



------------------------|-----------------------|------------------------|
------------------------|-----------------------|------------------------|
------------------------|-----------------------|------------------------|
------------------------|-----------------------|------------------------|
-----2-------0-------2--|-------2----------0----|-----2---------------0--|
--0-------0-------0-----|----0-----0--3---------|--0-------0--3----0-----|



-----------------------|------------------------|-----------------------|
-----------------------|------------------------|-----------------------|
-----------------------|------------------------|-----------------------|
-----------------------|------------------------|-----------------------|
-------0----------0----|-----2-------0-------2--|-------2----------0----|
----0-----0--3---------|--0-------0-------0-----|----0-----0--3---------|



------------------------|-----------------------|------------------------|
------------------------|-----------------------|------------------------|
------------------------|-----------------------|------------------------|
------------------------|-----------------------|------------------------|
-----2---------------0--|-------0----------0----|-----2-------0-------2--|
--0-------0--3----0-----|----0-----0--3---------|--0-------0-------0-----|



-----------------------|------------------------|-----------------------|
-----------------------|------------------------|-----------------------|
-----------------------|------------------------|-----------------------|
-----------------------|------------------------|-----------------------|
-------2----------0----|-----2---------------0--|-------0----------0----|
----0-----0--3---------|--0-------0--3----0-----|----0-----0--3---------|



-------------------|------------------|------------------||
-------------------|------------------|------------------||
-------------------|------------------|------------------||
-------------------|------------------|------------------||
-------------------|------------------|------------------||
--0----------------|------------------|------------------||
  development and support by
dmitry ivanov