rock
 
|tablatures   |lyrics   |discussion forums   |more tabs @ XGuitar.com

Kiss tabs

Unholy guitar tab

From: robs@violet.berkeley.edu (Rob Schenk)

 by Kiss

Tune down 1/.2 step


 intro


----------------------------------------
----------------------------------------
----------------------------------------
-4/5----4/5-----------3--2------2--3--
-x/x----x/x----1--1---------1----------
-2/3----2/3------------------------------

rhythm


----------------------------------------
----------------------------------------
-2--5/7---5----------------------------
-2--5/7---5--5-------------------------
-0--3/5---3--5---3---------------------
-------------3---1--6--5--4-----------

----------------------------------------
----------------------------------------
-4/5/4---------------7/8/7---7--7--5--7--5-
-4/5/4---------------7/8/7---7--7--5--7--5-
-2/3/2--0-0-0-0-0----5/6/5---------------3-
----------------------------------------

chorus

----------------------------------------
----------------------------------------
---------------------5--4-------------
---------------------5--4-------------
-----3h5v--3---------3--2----5------3--5-
-5-------------5v----------------5-------
----------------------------------------

----------------------------------------
----------------------------------------
----------------------------------------
--5------3--5------3--2--1-----------
------5---------1-----------------------

----------------------------------------
----------------------------------------
---------------------5--4-------------
---------------------5--4-------------
-----3h5-v--3--------3--2----5------3--5-
-5----------------5v-------------5-------

---------------------------------
----------------------------------
--------------------------------
---------------------------------
--5------3--5---3------------
------5---------1-------------

before solo

----------------------------------------
----------------------------------------
----------------------------------------
----------------------------------------
-5-------3--5--5------3--5------3----2-----
-----5--------------5--------1-----1-----1-

----------------------------------------
----------------------------------------
----------------------------------------
----------------------------------------
-3-----2-v------------------------------
----1------------------------------------

rhythm during solo


----------------------------------------
----------------------------------------
-------------------------------8-7------
-------------------------------6-5-----
----------------------------------------
-0--5--3--0--0--5--3--0---------------

-------------------------------------
-------------------------------------
-------------------------------------
-------------------------------------
---------------------2--1--0---------
-0--5--3--0--0-1--------------------


----------------------------------------
----------------------------------------
----------------------------------------
----------------------------------------
------------------------------3--2--1--
-0--5-3-0-5--3--0--3--2--1------------

Domino

by Kiss

regular tuning

intro


----------------------------------------
-5--5-----3--3-----5b----------5b-----------
-2--2--2--2--2--2--2----2--2--5----2--0--2-
----------------------------------------
----------------------------------------
----------------------------------------

rhythm/chorus

-----------------------------------
----------3------------------------
----------2------------------------
----------0------------------------
--3b-0------3b--0--0-0--3b-0------
--------------------------------3b--

----------------------------------
---------3------------------------
-2-------2------------------------
-2---2---0------------------------
-0---0------3b-0-0-0--------------
------------------------0-2-3-5v--

verses

-------------------------------------
-------------------------------------
--------------------------2------2---
--------------------------2------2---
-0-(12 times)--3b--0------0------0---
------------------------------3------

--------------------------------------
--------------------------------------
--------------------------------------
--------------------------------------
-0-(12 X)------------------------------
--------------0--2--3--5v-------------

 prechorus

-3--3--3--2-----------------------------
-3--3--3--3-----------------------------
-0--0--0--2----2-------------2----------
-0--0--0--0----2-------------2----------
-2--2--2-------0--3p0--------0---------
-3--3--3---------------3----------------

-3--2---0------------------------------
-3--3---0------------------------------
-0--2---1------------------------------
-0--0---2------------------------------
-2------2------------------------------
-3------0------------------------------

----------------------------------------
----------------------------------------
-9------7--------4--------2-------3-------3-
-9------7--------4--------2-------0-------2-
-7------5--------2--------0-------0-------0-
-0-0-0----0-0-------0-0------0-0----0-0----
  development and support by
dmitry ivanov