rock
 
|tablatures   |lyrics   |discussion forums   |more tabs @ XGuitar.com

Kiss tabs

Under The Rose guitar tab

Under The Rose by KISS
From the album The Elder
--------------------------------------------------------------------



    intro/verses       let notes ring                     "Though you may be.
e:---------------1--0------1--0------1--0------1--0-----------------0--------|
B:---------------------1---------1---------1---------1-----------3---------3-|
G:------------------------------------------------------------2---------2----|
D:------------0~-------------------------------------------------------------|
A:---------------------------------------------------------------------------|
E:---------------------------------------------------------------------------|




  .."                         "..pure of heart.."                    "..and 
e:-0-----1--0------1--0-------------3---------3----------3---------3---------|
B:-------------1---------1-------1---------1----------3---------3-----------3|
G:----------------------------2---------2----------2---------2-----------2---|
D:---------------------------------------------------------------------------|
A:---------------------------------------------------------------------------|
E:---------------------------------------------------------------------------|




 free of sin.."                                                          "..
e:--0---------0---------0------------------0---------0--------0--------------|
B:---------3---------3------------------3---------3--------3-----------------|
G:------2---------2------------0/2---2---------2--------2-----------0/2-----2|
D:--------------------------0------------------------------------0-----------|
A:---------------------------------------------------------------------------|
E:---------------------------------------------------------------------------|




  you have been chosen.."
e:-----3--------3---------3--------3---------3--------3---------3--------3---|
B:--3--------3---------3--------3---------3--------3---------3--------3------|
G:--------2---------0--------0---------5--------5---------0--------0---------|
D:---------------------------------------------------------------------------|
A:---------------------------------------------------------------------------|
E:---------------------------------------------------------------------------|


                                                    

   "..to begin.."                           repeat
e:---1--0-----1--0-----1--0-----1--0---------------|
B:---------1--------1--------1--------1------------|
G:-------------------------------------------------|
D:0--------------------------------------0---------|
A:-------------------------------------------------|
E:-------------------------------------------------|




   "Loneliness will haunt you.."   "will you sacrifice"                 "Do 
e:---------------------------------------------------------------------------|
B:---------------------------------------------------------------------------|
G:--7~----7~-------------------------------------------------------------7~--|
D:--7~----7~-----------2~---3~-------------------5~~-------5~----2---4---7~--|
A:--5~----5~-----------2~---3~-------------------5~~-------5~----0---2---5~--|
E:---------------------0~---1~-------------------3~~-------3~----------------|




  you take the oath.."     "will you live your life"             "under the 
e:---------------------------------------------------------------------------|
B:---------------------------------------------------------------------------|
G:----7~---------------------------------------------------------------------|
D:----7~--------2~---3~---------------5~------------2~--3~--5~---------------|
A:----5~--------2~---3~---------------5~------------0~--1~--3~---------------|
E:--------------0~---1~---------------3~-------------------------------------|




 rose..."
e:---------------------------------------------------------------------------|
B:--------------------------3--3--3------------------------------------------|
G:--------------------------2--2--2------------------------------------------|
D:-------3--2--0-------2----0--0--0--------------------------------3~-----3--|
A:----------------3--------------------3--2--0------------0--2--3------------|
E:----------------------------------------------3---0--3---------------------|





e:---------------------------------------------------------------------------|
B:--------------3--3--3------------------------------------------------------|
G:--------------2--2--2------------------------------------------------------|
D:2--0-----2----0--0--0---------------------------------------3--2--0-----2--|
A:------3------------------3--2--0-------3--2--0-----0--2--3-----------3-----|
E:----------------------------------3-------------3--------------------------|





e:---------------------------------------------------------------------------|
B:-3--3--3------------------------------------------------------3--3--3------|
G:-2--2--2------------------------------------------------------2--2--2------|
D:-0--0--0--------------------------------3~----3--2--0-----2---0--0--0------|
A:------------3--2--0------------0--2--3-----------------3-----------------3-|
E:---------------------3---0--3----------------------------------------------|


                             
                             
                to 2nd verse
e:---------------------3~---|
B:---------------------3~---|
G:---------------------0~---|
D:---------------------0~---|
A:-2--0-------3--2--0--x----|
E:-------3-------------3~---|




    solo
e:---------------------------------------------------------------------------|
B:----------------------------------------13b~---10--------------------------|
G:---12b~-----12--10---------------------------------12-10-----12b/12-10-----|
D:--------------------12-12-12-12-12~----------------------12-----------12~--|
A:---------------------------------------------------------------------------|
E:---------------------------------------------------------------------------|




                                                       w/delay
e:---------------------------------------------------------------------------|
B:---------------------------------------------------------------------------|
G:-------------------------------------------------------------5---------5/7-|
D:-----------------0--2--3~---2~----------------------------5/7------5/7-----|
A:-/10/8--5~/x--------------------5/3~--3/2~--2/0~---------------------------|
E:---------------------------------------------------------------------------|





e:---------------------------------------------------------------------------|
B:6----8b--8b--8b--8b--8b--8b~~/6--------------13b~-13b~-13b~-13b~-----------|
G:-----------------------------------10-12-10------------------------12------|
D:-----------------------------------------------------------------------10/1|
A:---------------------------------------------------------------------------|
E:---------------------------------------------------------------------------|





e:-------------------------------------------------------------------10/13---|
B:----------------------------------------------10/13--10/13--10/13----------|
G:------------------------10/12--10/12--10/12--------------------------------|
D:2--10/12--10/12--10/12-----------------------------------------------------|
A:---------------------------------------------------------------------------|
E:---------------------------------------------------------------------------|




                   "Loneliness will haunt you.."   etc.            "Do you 
e:10/13--10/13---------------------------------------------------------------|
B:---------------------------------------------------------------------------|
G:-----------------7~-----7~---------------------------------------7~----7~--|
D:-----------------7~-----7~---------------------2----3----5-------7~----7~--|
A:-----------------5~-----5~-----2----3----5-----0----1----3-------5~----5~--|
E:-------------------------------0----1----3---------------------------------|


                                               

  take the oath.."             "under the rose.."
e:---------------------------------------------|
B:---------------------------------------------|
G:---------------------------------------------|
D:-----------------2----3-----5----------------|
A:--2----3----5----0----1-----3----------------|
E:--0----1----3--------------------------------|


  development and support by
dmitry ivanov