rock
 
|tablatures   |lyrics   |discussion forums   |more tabs @ XGuitar.com

Kiss tabs

Under The Rose bass tab

UNDER THE ROSE (from the KISS CD "THE ELDER")
--------------------

Transcribed by Emil Ortenmark, emil@kissasylum.com

Standard tuning

Comments: Pretty easy stuff this. Just a few simple variations consisting
mainly of sustained dotted quarters (it?s in 12/8). Just play.


Key:
/    = slide up
\    = slide down
b    = bend (whole step)
b^   = bend (1/2 step)
b^^  = bend (1 1/2 steps)
pb   = pre-bend
r    = release-bend
t    = tap with righthand finger
h    = hammer-on
p    = pull-off
~    = Vibrato
*    = Natural Harmonic
#(#) = Trill
**   = Artificial Harmonic
x    = Dead notes (no pitch)
P.M. = Palm mute (- -> underneath indicates which notes)
(\)  = Dive w\bar
(/)  = Release w\bar
Tp   = Tap w\plectrum


Rhythm Fig. 1

G|--5h7-----------5h7----------------------------------------|
D|-----------------------------------------------------------|
A|-----------------------------------------------------------|
E|-----------------------------------------------------------|



Rhythm Fig. 2a

G|-----------------------------------------------------------|
D|--0------0--------------------0----------------------2-----|
A|----------------3------------------------------------------|
E|-----------------------3-----------------------------------|



G|-----------------------------------------------------------|
D|--3----------------------------0---------------------------|
A|---------3---------------0--3------------------------------|
E|----------------3------------------------------------------|



Rhythm Fig. 2b

G|-----------------------------------------------------------|
D|--0------0--------------------0----------3-2-0----------2--|
A|----------------3------------------------------------------|
E|-----------------------3-----------------------------------|



G|-----------------------------------------------------------|
D|--3----------------------------0----------3-2-0------------|
A|---------3---------------0--3------------------------------|
E|----------------3------------------------------------------|




Rhythm Fig. 2c

G|-----------------------------------------------------------|
D|--0------0--------------------0----------3-2-0----------2--|
A|----------------3------------------------------------------|
E|-----------------------3-----------------------------------|



G|-----------------------------------------------------------|
D|--3----------------------------0---------------------------|
A|---------3---------------0--3------------------------------|
E|----------------3------------------------------------------|




Rhythm Fig. 3a

G|-----------------------------------------------------------|
D|-----------------------------------------------------------|
A|--3h5-----3h5----------------------------------------0--3--|
E|------------------0------1------3-----------3--------------|





Rhythm Fig. 3b

G|-----------------------------------------------------------|
D|-----------------------------------------------------------|
A|--3h5-----3h5--------------------------0------1------3-----|
E|------------------0------1------3--------------------------|



Rhythm Fig. 4

G|-----------------------------------------------------------|
D|--3-2-0----2-0--0--0---------------------2-----------------|
A|--------3-------------3-2-0--------0-2-3-------------------|
E|----------------------------3--0-3-------------------------|



G|-----------------------------------------------------------|
D|--3-2-0----2-0--0--0---------------------------------------|
A|--------3-------------3-2-0----3-2-0---0-2-3---------------|
E|----------------------------3--------3---------------------|



G|-----------------------------------------------------------|
D|--3-2-0----2-0--0--0---------------------2-----------------|
A|--------3-------------3-2-0--------0-2-3-------------------|
E|----------------------------3--0-3-------------------------|



G|-----------------------------------------------------------|
D|--3-2-0----2-0--0--0---------------------------------------|
A|--------3-------------3-2-0----3-2-0-----------------------|
E|----------------------------3--------3---------------------|



Riff 1

G|-----------------------------------------------------------|
D|-----------------------------------------------------------|
A|--0--3-----------------------------------------------------|
E|-----------------------------------------------------------|
  development and support by
dmitry ivanov