rock
 
|tablatures   |lyrics   |discussion forums   |more tabs @ XGuitar.com

Kiss tabs

Under The Gun bass tab

UNDER THE GUN (from the KISS CD "ANIMALIZE")
--------------------

Transcribed by Emil Ortenmark, emil@kissasylum.com

Tuned down 1/2-step

Comments: Not sure if the bass actually play all those notes during the
verse but it doesn't seem to be just holding one note. There aren't that
many Rhy. Figs here but they sure are fast. It's a good workout this one.


Key:
/    = slide up
\    = slide down
b    = bend (whole step)
b^   = bend (1/2 step)
b^^  = bend (1 1/2 steps)
pb   = pre-bend
r    = release-bend
t    = tap with righthand finger
h    = hammer-on
p    = pull-off
~    = Vibrato
*    = Natural Harmonic
#(#) = Trill
**   = Artificial Harmonic
x    = Dead notes (no pitch)
P.M. = Palm mute (- -> underneath indicates which notes)
(\)  = Dive w\bar
(/)  = Release w\bar
Tp   = Tap w\plectrum




Rhythm Fig. 1

Gb|-------------------------------------------------------------|
Db|-------------------------------------------------------7--7\-|
Ab|-------------------------------------------------------------|
Eb|-------------------------------------------------------------|



Rhythm Fig. 2

Gb|-------------------------------------------------------------|
Db|-------------------------------------------------------------|
Ab|--3--0-0-0-0-0-0-0-0-0-0-0-3--3---0-0-0-0-0-0-0-0-0-0-0-3--3-|
Eb|-------------------------------------------------------------|



End 1

Gb|-------------------------------------------------------------|
Db|-------------------------------------------------------------|
Ab|----0-0-0-0-0-0-0-0-0-0-0-3--3---0-0-0-0-0-0-0-0-0-0-0-0-0-0-|
Eb|-------------------------------------------------------------|



End 2

Gb|-------------------------------------------------------------|
Db|-------------------------------------------------------------|
Ab|----0-0-0-0-0-0-0-0-0-0-0-3--3---0-0-0-0-0-0----------0------|
Eb|---------------------------------------------0--2--3---------|



End 3

Gb|-------------------------------------------------------------|
Db|-------------------------------------------------------------|
Ab|----0-0-0-0-0-0-0--------------------------------------------|
Eb|---------------------1------3--------------------------------|



Rhythm Fig. 3

Gb|-------------------------------------------------------------|
Db|-------------------------------------------------------------|
Ab|--------------------------3----3--3-3-3-3-----------3--------|
Eb|--5--5--5-5-5-5---5--0--3-------------------5--0--3----------|



Gb|-------------------------------------------------------------|
Db|-------------------------------------------------------------|
Ab|----3--3-3-3-3------3----------------------------------------|
Eb|-----------------3-----3-5----5--5-5-5--5-5-5--5-5-5---------|



Rhythm Fig. 4a

Gb|-------------------------------------------------------------|
Db|-------------------------------------------------------------|
Ab|-----7------7p5-0-5---7-----5---0---5---0---5----------------|
Eb|--0----------------------------------------------------------|



Rhythm Fig. 4b

Gb|-------------------------------------------------------------|
Db|-------------------------------------------------------------|
Ab|-----7------7p5-0-5---7-----3---3---5------------------------|
Eb|--0----------------------------------------------------------|



Rhythm Fig. 5

Gb|-------------------------------------------------------------|
Db|-------------------------------------------------------------|
Ab|-------------------------------------7p5--0-5--7p5-0-5---7p5-|
Eb|--0----------------------------------------------------------|



Rhythm Fig. 6

Gb|-------------------------------------------------------------|
Db|-----------------------------------------------7--5----------|
Ab|--0----------------------------------------5h7-------7--5----|
Eb|-------------------------------------------------------------|
    < - 8x - >


Rhythm Fig. 7

Gb|-------------------------------------------------------------|
Db|------------------------------------------------7--5---------|
Ab|--------------------------------------------5h7-------7-5-0--|
Eb|-------------------------------------------------------------|



Rhythm Fig. 8

Gb|-------------------------------------------------------------|
Db|-------------------------------------------------------------|
Ab|----5---0---5---0---5----------------------------------------|
Eb|-------------------------0------------------------------0-0--|
    < - - - - - 3x - - - >
  development and support by
dmitry ivanov