rock
 
|tablatures   |lyrics   |discussion forums   |more tabs @ XGuitar.com

Kiss tabs

Uh! All Night bass tab

UH! ALL NIGHT (from the KISS CD "ASYLUM")
--------------------

Transcribed by Emil Ortenmark, emil@kissasylum.com

Tuned down 1/2-step

Comments: The rhythm pattern here is pretty much the same throughout,
while the melodic content varies a little (it's mostly A minor pentatonic
with a few chromatic passing tones). I kind of like the verse here. It's
uncharacteristically high for a supportive bass part. For some reason
the majority of this part is played staccato giving it a slight "bounce".
Also, beware of the very long Rhy. Fig 8. The bass player, whoever he
may be, stretches things out here and presents minor variations on the
chorus riff.


Key:
/    = slide up
\    = slide down
b    = bend (whole step)
b^   = bend (1/2 step)
b^^  = bend (1 1/2 steps)
pb   = pre-bend
r    = release-bend
t    = tap with righthand finger
h    = hammer-on
p    = pull-off
~    = Vibrato
*    = Natural Harmonic
#(#) = Trill
**   = Artificial Harmonic
x    = Dead notes (no pitch)
P.M. = Palm mute (- -> underneath indicates which notes)
(\)  = Dive w\bar
(/)  = Release w\bar
Tp   = Tap w\plectrum





Rhythm Fig. 1

Gb|--------------------------------------------------------|
Db|--------------------------------------------------------|
Ab|--------------------------------------------------------|
Eb|--5--5--5--5--5--5-5--5-5-5--5--5--5--5--5--2--3--4-----|
     < - - - - - - 3x - - - - >


Rhythm Fig. 2

Gb|--------------------------------------------------------|
Db|--------------------------------------------------------|
Ab|--------------------------------------------------------|
Eb|--5--5--5--5--5--5-5--5-3h4-5--5--5--5--5--5-5--5-3h4---|



Gb|--------------------------------------------------------|
Db|--------------------------------------------------------|
Ab|--------------------------------------------------------|
Eb|--5--5--5--5--5--5-5--5-5--3--3--3/-5--5--5--5--3-------|



Rhythm Fig. 3

Gb|--9--9--9--9--9--9-9--9----9--9--9--9--9--9-9--9--------|
Db|------------------------9------------------------9------|
Ab|--------------------------------------------------------|
Eb|--------------------------------------------------------|



Gb|--9--9--9--9--9--9-9--9-9\-7--7--7--7--7---7--7---------|
Db|------------------------------------------------7-------|
Ab|--------------------------------------------------------|
Eb|--------------------------------------------------------|



Gb|--9--9--9--9--9--9-9--9----9--9--9--9--9--9-9--9--------|
Db|------------------------9------------------------9------|
Ab|--------------------------------------------------------|
Eb|--------------------------------------------------------|



Gb|--9--9--9--9--9--9-9--9-9\-5--5--5--5--5----------------|
Db|------------------------------------------3--3--5-------|
Ab|--------------------------------------------------------|
Eb|--------------------------------------------------------|



Rhythm Fig. 4

Gb|--------------------------------------------------------|
Db|--------------------------------------------------------|
Ab|-----------------2-2--3-3--5--5--5--5--5--5-5--5--------|
Eb|--3--3--3--3--3----------------------------------3h5----|



Gb|--------------------------------------------------------|
Db|--------------------------------------------------------|
Ab|-----------------2-2--3-3--5--5--5--5--5--5-5--5--------|
Eb|--3--3--3--3--3----------------------------------5------|



Gb|--------------------------------------------------------|
Db|--------------------------------------------------------|
Ab|--7--7--7--7--7--7--7----------------------------2------|
Eb|-----------------------5h7-5--5--5--5--5--5-5--5--------|



Gb|--------------------------------------------------------|
Db|--------------------------------------------------------|
Ab|--3--3--3-----3--3----3--5--5--5-----5/-7--7------------|
Eb|-----------3---------------------(5)--------------------|




Rhythm Fig. 5

Gb|--------------------------------------------------------|
Db|--------------------------------------------------------|
Ab|--------------------------------------------------------|
Eb|--5--5--5--5--5--5-5--5-5-5-----------------------------|




Rhythm Fig. 6

Gb|--------------------------------------------------------|
Db|--------------------------------------------------------|
Ab|------------------------5-------------------------------|
Eb|--3--3--3--3--3--3-3--3----3--3--3--3--3--3--3--5-------|
     < - - - - 3x - - - - - >



Rhythm Fig. 7

Gb|--------------------------------------------------------|
Db|----------------------5h7-------------------------------|
Ab|-----------------5h7------------------------------------|
Eb|--5--5--5--5--5------------5--5--5--5--5--5-5--5-3h4----|



Gb|--------------------------------------------------------|
Db|---------------------7----------------------------------|
Ab|-----------5h6h7--7-------------------------------------|
Eb|--5--5--5-----------------3--3--3/-5--5--5--5-----------|



Rhythm Fig. 8

Gb|--------------------------------------------------------|
Db|--------------------------------------------------------|
Ab|------------------------5h7-----------------------------|
Eb|--5--5--5--5--5--5-5--5-----5--5--5--5--5--5-5--5-3-----|



Gb|--------------------------------------------------------|
Db|-------------------------------------------5h7--5h7-----|
Ab|--------------------------------------------------------|
Eb|--5--5--5--5--5--5-5--5-5-5-3--3--3/-5--5---------------|



Gb|--------------------------------------------------------|
Db|--------------------------------------------------------|
Ab|--------------------------------------------------------|
Eb|--5--5--5--5--5--5-5--5-3h4-5--5--5--5--5--5-5--5-3h4---|



Gb|--------------------------------------------------------|
Db|------------------------------------------------5h7-----|
Ab|--------------------------------------------------------|
Eb|--5--5--5--5--5--5-5--5-5--3--3--3/-5--5--5-5-----------|



Gb|--------------------------------------------------------|
Db|--------------------------------------------------------|
Ab|--------------------------------------------------------|
Eb|--5--5--5--5--5--5-5--5-3--5--5--5--5--5--5-5--5-3------|



Gb|--------------------------------------------------------|
Db|--------------------------------------------------------|
Ab|--------------------------------------------------------|
Eb|--5--5--5--5--5--5-5--5-5--3--3--3/-5--5--5-5--5-5------|



Gb|--------------------------------------------------------|
Db|----------------------------5h7-7--7--7--7--7-7---------|
Ab|------------------------5h7-----------------------------|
Eb|--5--5--5--5--5--5-5--5--------------------------x-3h4--|



Gb|--------------------------------------------------------|
Db|--------------------------------------------------------|
Ab|-------------------------------------------------5-5----|
Eb|--5--5--5--5--5--5-5--5-5--3--3--3/-5--5--5-5--5--------|



Gb|--------------------------------------------------------|
Db|--------------------------------------------------------|
Ab|--------------------------------------------------------|
Eb|--5--5--5--5--5--5-5--5-3h4-5--5--5--5--5--5-5--5-3h4---|



Gb|--------------------------------------------------------|
Db|------------------------------------5/-7-----7--5h7-----|
Ab|--------------------------------------------------------|
Eb|--5--5--5--5--5--5-5--5-5--3--3--3--------5-------------|



Gb|--------------------------------------------------------|
Db|--------------------------------------------------------|
Ab|--------------------------------------------------------|
Eb|--5--5--5--5--5--5-5--5-3h4-5--5--5--5--5--5-5--5-3h4---|



Gb|--------------------------------------------------------|
Db|--------------------------------------------------------|
Ab|--------------------------------------------------------|
Eb|--5--5--5--5--5--5-5--5-5--3--3--3/-5--5--5--5--3-------|
                                                 Fade out
  development and support by
dmitry ivanov