rock
 
|tablatures   |lyrics   |discussion forums   |more tabs @ XGuitar.com

Kiss tabs

Two Timer guitar tab

Two Timer by KISS
From the album Dressed To Kill
--------------------------------------------------------------------



                                                                           
e:---------------------------------------------------------------------------|
B:---------------------------------------------------------------------------|
G:-----------2~------------6~------------2~------------6~----------2~--------|
D:-----------2~------------6~------------2~------------6~----------2~--------|
A:---2--2----0~----2--2----4~----2--2----0~----2--2----4~---2--2---0~--------|
E:---0--0----------0--0----------0--0----------0--0---------0--0-------------|




  "She thinks...."                                    repeat
e:---------------------------------------------------------------------------|
B:---------------------------------------------------------------------------|
G:4~-4---4---4~-4---4---4--4---4---4--4----4-4--2---2----2--4--4---4----4--4-|
D:4~-4---4---4~-4---4---4--4---4---4--4----4-4--2---2----2--2--2---2----4--4-|
A:2~-2---0---2~-2---0---2--2---0---2--2----2-2--0---0----0--2--2---2----2--2-|
E:----------------------------------------------------------0--0---0---------|




                      "Just call me a.."
e:---------------------------------------------------------------------------|
B:---------------------------------------------------------------------------|
G:--4--4-4---3--4--5--6-6-6-6-6-6-6---------2-2-2-2-2-2----------4~----------|
D:--4--4-4---3--4--5--6-6-6-6-6-6-6---------2-2-2-2-2-2----------2~--4~------|
A:--2--2-2---1--2--3--4-4-4-4-4-4-4-etc-----0-0-0-0-0-0-etc----------2~------|
E:---------------------------------------------------------------------------|




    "Cause my baby.."                                     "Two timer.."
e:---------------------------------------------------------------------------|
B:--------------------------------------------------------------------4------|
G:--------------------------------------------------------------------4------|
D:----6-6-6-6-6-6-6-6---------2-2-2-2---4-4-4-4-----6---4---------6---4------|
A:----4-4-4-4-4-4-4-4-etc-----0-0-0-0---2-2-2-2-----4---2---------4----------|
E:---------------------------------------------------------4-2-0------------4|


                            
                            

e:-------------------------|
B:----------------------4--|
G:----------------------4--|
D:----6---4---------6---4--|
A:-6--4---2---------4------|
E:-----------4-2-0---------|





e:--------7-----7-------7-----7----------------------------------------------|
B:---7--7-7--7--7--7--7-7--7--7---9/7-----------------------7-----6-------4~-|
G:---9b------9b----9b------9b-----9/7-9-9--7b/7-------------7-----6-----4-4~-|
D:------------------------------------9----------9/7/9~---9----9-----9--4----|
A:---------------------------------------------------------------------------|
E:---------------------------------------------------------------------------|





e:-----12--12-12-/12-12----10-10~------12------12----------------------------|
B:-----12b-12-12b/12-10-10-10-10~---12-12--12--12--12-/12-12------10/10--10/10
G:----------------------11----------11b----11b-----11b/11-9-------9b/9---9b/9|
D:-----------------------------------------------------------11--------------|
A:---------------------------------------------------------------------------|
E:---------------------------------------------------------------------------|


                                            


e:---------10-12b-12-12b-12-12b/12/10-------|
B:----10/12---------------------------12-12b|
G:------------------------------------------|
D:------------------------------------------|
A:------------------------------------------|
E:------------------------------------------|


  development and support by
dmitry ivanov