rock
 
|tablatures   |lyrics   |discussion forums   |more tabs @ XGuitar.com

Kiss tabs

Two Timer bass tab

TWO TIMER (from the KISS-LP "DRESSED TO KILL")
----

Bass tabs transcribed by 
Johan Linden (johan.linden@mbox304.swipnet.se)

Eb Tuning

Fig. 1
Gb|-----------------------------------------------------------|
Db|-----------------------------------------------------------|
Bb|----------------4-----------------4------------------------|
Eb|---0-0-5----0-0------0-0-5----0-0------0-0-5---------------|

Fig. 2                                                           
Gb|---------------------------------4-------------------------|
Db|-------------9--7------------4-7----7--4-------------------|
Ab|-------6-7-9-------9-7----5--------------7--4--------------|
Eb|-7--7------------------7----------------------5--5-3--2-0--|

                      end 1        end 2
Gb|-----------------|----------4-|----------------------------|
Db|-----------------|------4-7---|----------9-----------------|
Ab|-7--7-5--4-------|---5--------|----6-7-9-------------------|
Eb|-----------4-5-7-|-7----------|-7-----------6--7--8--------|

Fig. 3
Gb|-------4-----------------------4-----4-----4---------------|
Db|--7-7-----7--4-----------4-7------7----7-4----7--4---------|
Ab|---------------7-5----5----------------------------7-4-----|
Eb|-------------------7-----------------------------------5---|
                                                            
Gb|-----------------------------------------------------------|
Db|-----------------------------------------------------------|
Ab|-------------7--7-5--4----------6---9---6------------------|
Eb|-5-3--2-0-0------------4-5-7--7---7---7---7--7-6-6-7-7-8-8-|

Fig. 4
Gb|-----------------------------------------------------------|
Db|-----------------------------------------------------------|
Ab|------------------------7-----4--4-4-4-4-4-4---------------|
Eb|---9-9-9-9-9-9-5-5-5-5-----7-----------------5-------------|
      <--3x->     <--2x->           <--3x->

Fig. 5                                                       
Gb|-----------------------------------------------------------|
Db|-----------------------------------------------------------|
Ab|-----------------------------------------------------------|
Eb|--5--5-5-5-7--7--7-7-7-------------------------------------|
      
Fig. 6
Gb|-----------------------------------------------------------|
Db|-----------------------------------------------------------|
Ab|---4--2-------4--2----3-4--2-------4--2--------------------|
Eb|--------4-2-0-------4--------4-2-0-------------------------|

Fig. 7
Gb|-----------------------------------------------------------|
Db|-----------------------------------------------------------|
Ab|---4--2-------4--2----3------------------------------------|
Eb|--------4-2-0-------4--------------------------------------|


TWO TIMER - Gene Simmons

[Fig. 1]

[Fig. 2 w/ end 1]
She thinks she's high fashion
She thinks she looks divine
And that's what I keep tellin' her
I tell her all the time

[Fig. 3]
And she tells me she likes fast cars
She says she likes mine the best
And just because of that, baby
You think she'd forget the rest, no, no, no

[Fig. 4]
Just call me a three time loser
That's all I'll ever be
'Cause my baby's such a two timer
You know she's 
[Fig 5]
two timing, she's a-two timing me

[Fig. 6]
Two timer, my baby is a two timer
[Fig. 1]
My baby's a two timer
My baby's a two timer
[Fig 5]
My baby, she's a-two timing 
[Fig. 6]
me, timer
Two timer

[Solo] w/[Fig. 2 w/end.2]

[Fig. 4]
Just call me a three time loser
That's all I'll ever be
'Cause my baby's such a two timer
You know she's 
[Fig 5]
two timing, she's a-two timing me

[Fig. 6]
Two timer, my baby is a two timer
[Fig. 1]
My baby's a two timer
My baby's a two timer
[Fig 5]
My baby, she's a-two timing 
[Fig. 7]
me, timer
Two timer

[Fig. 7] (until fade)
My baby is a two timer
She's nothin' but a two timer
It's the truth baby, you're a two timer
My baby is a two timer
My baby is a two timer
  development and support by
dmitry ivanov