rock
 
|tablatures   |lyrics   |discussion forums   |more tabs @ XGuitar.com

Kiss tabs

Tomorrow And Tonight bass tab

TOMORROW AND TONIGHT (from the KISS CD "LOVE GUN")
--------------------

Transcribed by Emil Ortenmark, emil@kissasylum.com

Tuned down 1/2-step

Comments: This is straight rock 'n' roll. No ifs ands or buts. The bass is
suprisingly low in the mix on this song. I'm not really sure if Rhy. Fig 1
is actually played or if I'm filling that in myself.


Key:
/    = slide up
\    = slide down
b    = bend (whole step)
b^   = bend (1/2 step)
b^^  = bend (1 1/2 steps)
pb   = pre-bend
r    = release-bend
t    = tap with righthand finger
h    = hammer-on
p    = pull-off
~    = Vibrato
*    = Natural Harmonic
#(#) = Trill
**   = Artificial Harmonic
x    = Dead notes (no pitch)
P.M. = Palm mute (- -> underneath indicates which notes)
(\)  = Dive w\bar
(/)  = Release w\bar
Tp   = Tap w\plectrum



Rhythm Fig. 1

Gb|----------------------------------------------|
Db|----------------------------------------------|
Ab|--4-------------------------------------------|
Eb|----------------------------------------------|



Rhythm Fig. 2

Gb|----------------------------------------------|
Db|----------------------------------------------|
Ab|--4-----------4-----4----4---------4----------|
Eb|-------6---------6----------6---------6-------|


End 1

Gb|----------------------------------------------|
Db|--------6--6--6-------------------------------|
Ab|-----------------8--6--4----4---------4-------|
Eb|--4--4-------------------------6---------6----|



End 2

Gb|----------------------------------------------|
Db|--------6--6--6-------------------------------|
Ab|-----------------8--6--4----4-----------------|
Eb|--4--4-------------------------6------4--6----|



End 3

Gb|----------------------------------------------|
Db|--------6--6--6-------------------------------|
Ab|-----------------8--6--4----4-------4---------|
Eb|--4--4-------------------------6-------6--4---|



Rhythm Fig. 3

Gb|----------------------------------------------|
Db|----------------------------------------------|
Ab|-----------------4----4-------4---------------|
Eb|--2----------------------6-------6--4---------|
   < - - - - - - - - - 3x - - - - - - - - - >


Gb|----------------------------------------------|
Db|----------------------------------------------|
Ab|--------3-----6----3--------------------------|
Eb|--4--4-----4----------4-----------------------|



Rhythm Fig. 4a

Gb|----------------------------------------------|
Db|----------------------------------------------|
Ab|--4-----------4-----4-------------4-----------|
Eb|-------6---------6---------6---------6--------|



Gb|----------------------------------------------|
Db|----------------------------------------------|
Ab|--------1-----4---------------3-----6----3----|
Eb|--2--2-----2-------2--4----4-----4------------|




Rhythm Fig. 4b

Gb|----------------------------------------------|
Db|----------------------------------------------|
Ab|--4-----------4-----4-----/16\----4-----------|
Eb|-------6---------6-------------------6--------|



Gb|----------------------------------------------|
Db|----------------------------------------------|
Ab|--------1-----4---------------3-----6----3----|
Eb|--2--2-----2-------2--4----4-----4------------|



Rhythm Fig. 5

Gb|----------------------------------------------|
Db|----------------------------------------------|
Ab|--4-----------4-----4-----------4-------------|
Eb|-------6---------6---------6-------6--4-------|



Gb|----------------------------------------------|
Db|----------------------------------------------|
Ab|---------4-----------------3-----6----3-------|
Eb|--2---------------4--4--4-----4----------4----|



Rhythm Fig. 6

Gb|----------------------------------------------|
Db|----------------------------------------------|
Ab|--4---------4-------4----4-------4------------|
Eb|-------6---------6----------6-------6--4------|



Gb|----------------------------------------------|
Db|----------------------------------------------|
Ab|--------1-----4---------------3-----6\--------|
Eb|--2--2-----2-------2--4----4-----4------------|



Gb|----------------------------------------------|
Db|----------------------------------------------|
Ab|--4---------4-------4----4-------4------------|
Eb|-------6---------6----------6-------6--4------|



Gb|----------------------------------------------|
Db|----------------------------------------------|
Ab|---------4----------------3-----6-------------|
Eb|--2---------------4----4-----4----------4-----|



Gb|----------------------------------------------|
Db|----------------------------------------------|
Ab|-----------------4----4-------4---------------|
Eb|--2----------------------6-------6--4---------|



Gb|----------------------------------------------|
Db|----------------------------------------------|
Ab|-------------------4----4-------4-------------|
Eb|--2-------/14\-------------6-------6--4-------|



Gb|----------------------------------------------|
Db|----------------------------------------------|
Ab|-----------------4----4-------4---------------|
Eb|--2----------------------6---------6--4-------|



Gb|----------------------------------------------|
Db|----------------------------------------------|
Ab|----------------------------------------------|
Eb|--4--4--4--4--4--4--4--4--4-------------------|



Riff 1

Gb|----------------------------------------------|
Db|----------------------------------------------|
Ab|----------------------------------------------|
Eb|--16\-----------------------------------------|



Riff 2

Gb|----------------------------------------------|
Db|----7--6--------------------------------------|
Ab|----------9--7--6-----------------------------|
Eb|-------------------7--------------------------|
  development and support by
dmitry ivanov